Song name
# A B C D E F G H I J K L M N O P Q R S T U V W X Y Z

Atreyu - Dinosaurs Became Extinct tab

Artist: Atreyu
Song:Dinosaurs Became Extinct
Tabbed by: TomSOTYyo (TomSOTYyo@aol.com)

a really good song on their first cd

Verse: can be played with 1 guitar but cooler with 2 
after the SCREAMING! play this a bunch of times...
e|----------------------------------------------|
B|----------------------------------------------|
G|----------------------------------------------|
D|-0-7-8-555------------------------------------|
A|-0-7-8-555------------------------------------| 
E|-0-7-8-555------------------------------------|

Chorus: "you used to run so fast, where were you going?"
part 1 play this when the drummer sings
e|----------------------------------------------|
B|----------------------------------------------|
G|----------------------------------------------|
D|----------------------------------------------|
A|-777-101010-555-------------------------------| 
E|-777-101010-555-------------------------------|

part 2 whenever they scream during the chorus play this
e|----------------------------------------------|
B|----------------------------------------------|
G|----------------------------------------------|
D|-7-000-8757-000-8757-000----------------------|
A|-7-000-8757-000-8757-000----------------------| 
E|-7-000-8757-000-8757-000----------------------|
     ***      ***      ***
then back to part 1, then finish chorus with part 2
then go to verse play the same as in the beginning

after the 2nd do this with the bass in the background
e|----------------------------------------------|
B|----------------------------------------------|
G|----------------------------------------------|
D|-000-7----------------------------------------|
A|-000-7----------------------------------------| 
E|-000-7----------------------------------------|
   *** 

Pre-Bridge:took so long to do.. first strum then once a piece 
then twice the second time
e|----------------------------------------------|
B|----------------------------------------------|
G|----------------------------------------------|
D|-00-77-55-77-88-55-88-55----------------------|
A|-00-77-55-77-88-55-88-55----------------------|
E|-00-77-55-77-88-55-88-55----------------------|
   ** ** ** ** ** ** ** **
Bridge very short "your lies defeat your purpose"
e|----------------------------------------------|
B|----------------------------------------------|
G|----------------------------------------------|
D|-0-7-5-7-8-5-8-5------------------------------|
A|-0-7-5-7-8-5-8-5------------------------------| 
E|-0-7-5-7-8-5-8-5------------------------------|

Still the bridge: end the bridge on
e|----------------------------------------------|
B|----------------------------------------------|
G|----------------------------------------------|
D|-7--------------------------------------------|
A|-7--------------------------------------------| 
E|-7--------------------------------------------|
just strum it abruptly and back to the verse then chorus
have fun playing :)
Tap to rate this tab
# A B C D E F G H I J K L M N O P Q R S T U V W X Y Z