Song name
# A B C D E F G H I J K L M N O P Q R S T U V W X Y Z

Atreyu - Lead Sails And Paper Anchors tab

Intro x2

|-------1-111-3-333-0-000-|
|-1-111-1-111-3-333-0-000-|
|-2-222-2-222-4-444-1-111-|
|-2-222-3-333-5-555-2-222-|
|-------------------------|
|-------------------------|

Verse x2
|-0-0-0-0-1-1-1-1-3-3-3-3-0-0-0-0-|
|-1-1-1-1-1-1-1-1-3-3-3-3-0-0-0-0-|
|-2-2-2-2-2-2-2-2-4-4-4-4-1-1-1-1-|
|-2-2-2-2-3-3-3-3-5-5-5-5-2-2-2-2-|
|---------------------------------|
|---------------------------------|

Chorus 1
|-1-1-3-3-1-1-0-0-0-0-0-0-1-1-0-0-0------------|
|-1-1-3-3-3-3-1-1-0-0-1-1-3-3-1-1-0------------|
|-2-2-4-4-2-2-2-2-1-1-2-2-2-2-2-2-1-(let ring)-|
|-3-3-5-5-0-0-2-2-2-2-2-2-0-0-2-2-2------------|
|---------0-0-0-0-----0-0-0-0-0-0-2------------|
|----------------------------------------------|

Pre verse x2
|-0-000-1-111-3-333-0-000-|
|-1-111-1-111-3-333-0-000-|
|-2-222-2-222-4-444-1-111-|
|-2-222-3-333-5-555-2-222-|
|-------------------------|
|-------------------------|


Verse x2
|-0-0-0-0-1-1-1-1-3-3-3-3-0-0-0-0-|
|-1-1-1-1-1-1-1-1-3-3-3-3-0-0-0-0-|
|-2-2-2-2-2-2-2-2-4-4-4-4-1-1-1-1-|
|-2-2-2-2-3-3-3-3-5-5-5-5-2-2-2-2-|
|---------------------------------|
|---------------------------------|

Chorus 2
|-1-1-3-3-1-1-0-0-0-0-0-0-1-1-0-0-0-----0-000-0-000-1-111-|
|-1-1-3-3-3-3-1-1-0-0-1-1-3-3-1-1-0-----0-000-0-000-1-111-|
|-2-2-4-4-2-2-2-2-1-1-2-2-2-2-2-2-1-----1-111-1-111-2-222-|
|-3-3-5-5-0-0-2-2-2-2-2-2-0-0-2-2-2-----2-222-2-222-3-333-|
|---------0-0-0-0---------0-0-0-0-2-----2-222-2-222-------|
|---------0-0-------------0-0-----2-----2-222-2-222-------|

Bridge x2
|-0-0-0-0-0-0-0-0-1-1-1-1-0-0-0-0-|
|-1-1-1-1-0-0-0-0-1-1-1-1-0-0-0-0-|
|-0-0-0-0-0-0-0-0-2-2-2-2-0-0-0-0-|
|-2-2-2-2-2-2-2-2-3-3-3-3-2-2-2-2-|
|-3-3-3-3-------------------------|
|---------------------------------|

Chorus 3
|-0-0-0-0-0-0-1-1-0-0-0------------|
|-1-1-0-0-1-1-3-3-1-1-0------------|
|-2-2-1-1-2-2-2-2-2-2-1-(let ring)-|
|-2-2-2-2-2-2-0-0-2-2-2------------|
|-0-0-2-2-0-0-0-0-0-0-2------------|
|-----2-2-----0-0-----2------------|

Chorus 4 with distortion
|-1-1-0-0-0-0-0-0-1-1-0-0-0-0-1-1-1----------|
|-3-3-1-1-0-0-1-1-3-3-1-1-0-0-1-1-1----------|
|-2-2-2-2-1-1-2-2-2-2-2-2-1-1-2-2-1-Let ring-|
|-0-0-2-2-2-2-2-2-0-0-2-2-2-2-3-3-3----------|
|-----0-0-----0-0-----0-0--------------------|
|--------------------------------------------|

Outro x2 distortion
|-0-0-0-0-0-0-0-0-1-1-1-1-0-0-0-0-|
|-1-1-1-1-0-0-0-0-1-1-1-1-0-0-0-0-|
|-0-0-0-0-0-0-0-0-2-2-2-2-0-0-0-0-|
|-2-2-2-2-2-2-2-2-3-3-3-3-2-2-2-2-|
|-3-3-3-3-------------------------|
|---------------------------------|

Tap to rate this tab
 
# A B C D E F G H I J K L M N O P Q R S T U V W X Y Z