Song name
# A B C D E F G H I J K L M N O P Q R S T U V W X Y Z

Atrophy - In Their Eyes tab

H = Hammer

2x
|----------------------------------------|
|----------------------------------------|
|----------------------------------------|
|----------------------------------------|
|--5h7-----7h8---5h7-------3h5--2h3-3h5--|
|------0-0-----0-------0-----------------|

|----------------------------------------|
|----------------------------------------|
|----------------------------------------|
|----------------------------------------|
|--5h7-----7h8---5h7-------3h5--2--------|
|------0-0-----0-------0-----------------|

7x
|----------------------------------------|
|----------------------------------------|
|----------------------------------------|
|----------------------------------------|
|--5h7-----7h8---5h7-------3h5--2h3-3h5--|
|------0-0-----0-------0-----------------|

4x
|----------------------------------------|
|----------------------------------------|
|----------------------------------------|
|--5h7-----7h8---5h7-------3h5--2h3-3h5--|
|------0-0-----0-------0-----------------|
|----------------------------------------|

4x
|----------------------------------------|
|----------------------------------------|
|----------------------------------------|
|----------------------------------------|
|--5h7-----7h8---5h7-------3h5--2h3-3h5--|
|------0-0-----0-------0-----------------|

http://www.metal-archives.com/band.php?id=647
Tap to rate this tab
 
# A B C D E F G H I J K L M N O P Q R S T U V W X Y Z