Song name
# A B C D E F G H I J K L M N O P Q R S T U V W X Y Z

Atrophy - Killing Machine tab

ATROPHY - KILLING MACHINE
    (SOCIALIZED HATE, 1988)

Riff 1.First guitar.

e|---------------------------------------------------------------|
B|---------------------------------------------------------------|
G|0-0-7p5-0-7h8-0-10p8-0-10h12-0-12h13-0-13p12-0-12p10-0---------|
D|-------------------------------------------------------7-5-4-5-|
A|-------------------------------------------------------5-3-2-3-|
E|---------------------------------------------------------------|

Riff 1A.Second guitar.
e|---------------------------------------------------------------|
B|---------------------------------------------------------------|
G|---------------------------------------------------------------|
D|4------------------------------------------------------7-5-4-5-|
A|2------------------------------------------------------5-3-2-3-|
E|---------------------------------------------------------------|

Riff 1B.Actualy, this is first riff played with palm-mute. Just listen to track, and you 
get it.

e|---------------------------------------------------------------|
B|---------------------------------------------------------------|
G|0-0-7-5-0-7-8-0-10-8-0-10-12-0-12-13-0-13-12-0-12-10-0---------|
D|-------------------------------------------------------7-5-4-5-|
A|-------------------------------------------------------5-3-2-3-|
E|---------------------------------------------------------------|

Ending
e|---------------------------------------------------------------------------|
B|---------------------------------------------------------------------------|
G|---------------------------------------------------------------------------|
D|4--------------------------------------------------------------------------|
A|2--------------------------------------------------------------------------|
E|---------------------------------------------------------------------------|

Riff 2. Timed by your own.

e|-------------------------------|
B|-------------------------------|
G|-------------------------------|
D|7s5------------------7s5-7-8---|
A|5s3-0000000000000000-5s3-5-6---|
E|-------------------------------|

Riff 3.

e|------------------------------------------------------------------------|
B|------------------------------------------------------------------------|
G|------------------------------------------------------------------------|
D|---------------------------------------------------------------------9--|
A|5p3-5555-5p3-5555-5p3-3333-7333-6333-5p3-5555-5p3-5555-5p3-5555-7777-7--|
E|------------------------------------------------------------------------|



Riff 2A.Mute last notes.

e|---------------------------------|
B|---------------------------------|
G|---------------------------------|
D|7s5------------------7s5---5-7-8-|
A|5s3-0000000000000000-5s3-0-3-5-6-|
E|---------------------------------|


Riff 3A.

e|---------------------------------------------------------------------------|
B|---------------------------------------------------------------------------|
G|---------------------------------------------------------------------------|
D|---------------------------------------------------------------------------|
A|7p5-5555-7p5-5555-7p5-9999-8888-7p5-5555-7p5-5555-7p5-5555-8888-8----------|
E|---------------------------------------------------------------------------|


e|----------------------------------------------------------------|
B|----------------------------------------------------------------|
G|----------------------------------------------------------------|
D|-----------------------------------------------------------9----|
A|7p5-5555-7p5-5555-7p5-9999-8888-7p5-5555-7p5-5555-7p5-5555-7-9--|
E|-------------------------------------------------------------7--|

Riff 4. This riff sounds great, and vocal in chorus sounds good also, one of the best 
riffs from Atrophy. End of this riff
played on eleven, eight and nine fret in Sixteen notes.
e|---------------------------------------------------------------------------|
B|---------------------------------------------------------------------------|
G|---------------------------------------------------------------------------|
D|---------------------------------------------------------------------------|
A|2-----------3-2--------------2-----------3-2-----1111111188810-------------|
E|0-0-0-0-0-0-1-0-0-0-44443331-0-0-0-0-0-0-1-0-0-0---------------------------|

Riff 5.
e|----------------------------------------------|
B|----------------------------------------------|
G|----------------------------------------------|
D|9-11-------------9-11-10p9-9999-7-------------|
A|7-9--10p9-9999-7-7-9--------------------------|
E|----------------------------------------------|

On sixth time.
e|----------------------------------------------|
B|----------------------------------------------|
G|----------------------------------------------|
D|9-11-------------9-11-10p9-9999-11------------|
A|7-9--10p9-9999-7-7-9------------9-------------|
E|----------------------------------------------|

Second solo (3:31). Isn't correct particulary. And use tremolo in start. Listen track 
for bends.
e|-------------------------------------------------------------------------|
B|-------------------17b--20p19p17-171717171717-20p19p17-1717-20p19p17-----|
G|4b-4-4-4-0-2p0-1p0-------------------------------------------------------|
D|-------------------------------------------------------------------------|
A|-------------------------------------------------------------------------|
E|-------------------------------------------------------------------------|

e|--------------------------------------------------------------------|
B|15151515-17b----------------------------------------15151515-17b----|
G|----------------------------151718-1818181818181818-----------------|
D|---------------------151718-----------------------------------------|
A|--------------151618------------------------------------------------|
E|--------------------------------------------------------------------|

Riff 4A.Song end

e|----------------|
B|----------------|
G|----------------|
D|----------------|
A|2-----------3-2-|
E|0-0-0-0-0-0-1-0-|

Order

(0:00) Riff 1 x 2 and riff 1A x 2 played same time, 2 guitars.
(0:09) Riff 1B x 2
(0:18) Riff 1 x 4 and riff 1A x 4 played same time 2 guitar, then play ending.
(0:40) Riff 2 x 4
(0:47) Riff 3 x 2
(0:57) Riff 2 x 2/Riff 2A x 2
(1:04) Riff 3 x 2
(1:14) Riff 3A x 2
(1:30) RIff 4 x 2
(1:40) Riff 3A x 2
(1:57) Riff 4 x 8 (six time over the first solo)
(2:27) Riff 5 x 6
(2:47) Riff 2 x 2/Riff 2A x 2
(2:55) Riff 3 x 2
(3:04) Riff 3A x 2
(3:21) Riff 4 x 6 (four time over the second solo)
(3:41) Riff 4A x 1
End
Tap to rate this tab
# A B C D E F G H I J K L M N O P Q R S T U V W X Y Z