Song name
# A B C D E F G H I J K L M N O P Q R S T U V W X Y Z

Attack Attack - Kickin Wing Animal Doctor tab

This song was tabbed by Thomas D.
Email:blockedme9311@aim.com
This song is in drop c# as well as every other song on the album
Link to this song being played: http://www.youtube.com/watch?v=ImRldEKigZ8&feature=channel_page
Key:
h=hammer on
b=bend
/=pick slide
#/=slide
c=cover but dont press
*=pinch harmonic
Intro:
----------------------------------------------|
----------------------------------------------|
---------------10-10-10-10--------------------|(x3)
---------------x--x--x--x---------------------|
---------------8--8--8--8---------------------|
-3h5-5h7-7h9-0--------------3h5-5h7-7h9-10b---|
Verse:
-----------------------------------------------|
-----------------------------------------------|
--10-10-10-10-10----12-12-12-12-12---9-9-9-9-9-|
-0-x--x--x--x--x--0-x--x--x--x--x--0-x-x-x-x---|x(x2)
-0-8--8--8--8--8--0-10-10-10-10-10-0-7-7-7-7-7-|
-0----------------0----------------0-----------|
Continuation:
----------------------------------------------|
----------------------------------------------|
10-10-10-10-10-10-10-10-10-10-10-10-----------|(x2)Figure out the strumming
x--x--x--x--x--x--x--x--x--x--x--x------------|
8--8--8--8--8--8--8--8--8--8--8--8------------|
----------------------------------------------|
Mini Breakdown Wriff:
------------------------------------------------|
------------------------------------------------|
------------------------------------------------|Figure out strumming
-c1-c1-c1-c1-c1-c1-c1---------------------------|
-c1-c1-c1-c1-c1-c1-c1---------------------------|
-c1-c1-c1-c1-c1-c1-c1---------------------------|
Reapeat Verse x4
Break Down
----------------------------------------------|
----------------------------------------------|
----------------------------------------------|(x2)Figure out strumming
---00000-00000-00000-00000-000-00-------------|
---00000-00000-00000-00000-000-00-*3----------|
-/-00000-00000-00000-00000-000-00-------------|
Continuation 2:
----------------------------------------------------|
----------------------------------------------------|
-10----12----9-----7-----9--------------------------|(x2)
-x-(x8)-x-(x2)-x-(x6)-x-(x8)-x-(x8)-----------------|
-8-----10----7-----5-----7--------------------------|
----------------------------------------------------|
On the third time dont go back to the 7/9 chord revert back to continuation 1 and do 
2 more times then pay break down as outro i cant figure out the lead at the end so sorry
Tap to rate this tab
# A B C D E F G H I J K L M N O P Q R S T U V W X Y Z