Guitaretab - guitar tabs
Song name
# A B C D E F G H I J K L M N O P Q R S T U V W X Y Z

Attack Attack - The Peoples Elbow tab

Song: The Peoples Elbow
Artist:Attack Attack
Tuning:C#,G#,C#,F#,A#,D#
Tabbed by Jeremy Jones


Intro: 0.09-0.22
|------------------------------|
|-----------------111111111111-|
|-----------------141414141414-|x2
|------------------------------|
|---00000-0-x2-----------------|
|---00000-0--------------------|



Verse: 0.23-0.50

Rhythm Guitar
|------------------------------------------|
|------------------------------------------|       
|---------------------9999999-10101010-----|
|-8---5---------------xxxxxxx-x-x-x--------|x2
|-8--5------00-00-0--7777777-8-8-8-8------|
|-8---5------00-00-0-----------------------|

Lead Guitar
|----------------------------------------|
|----------------------------------------|       
|-10---7--------------9999999-10101010---|
|-x----x--------------xxxxxxx-x-x-x-x----|x2
|-8---5-----00-00-0--7777777-8-8-8-8----|
|------------00-00-0---------------------|

|-------|
|-------|
|-------|
|---0---|
|---0~--|
|---0---|



Riff 3: 0.53-1.08
|----------------------------------------------|
|--11-11-11-11-11-11-11-11---------------------|
|--14-14-14-14-14-14-14-14---------------------|
|----------------------------------------------|x4
|----------------------------0000-0000---------|
|----------------------------0000-0000---------|



Riff 4: 1.09-1.30

Rhythm Guitar
|--------------------|
|--------------------|
|--------------------|        (Figure Strumming)
|--0~-----0--8--5----|    
|--0~-----0--8--5-x4-|
|--0~-----0--8--5----|


Lead Guitar (Correct Me If Im Wrong, It Sounds Right)
|----------------------------|
|----------------------------|
|------------10/12--10--7----|      (Figure Strumming)
|--0~-----0--x-/x---x---xx4-|    
|--0~-----0--8-/10--8---5----|
|--0~-----0------------------|


[ Tab from: http://www.guitaretab.com/a/attack-attack/175278.html ]
Riff 5: 1.31-1.52
|------------------------------------|
|-----------------1111---1111--------|
|-----------------1414---1414--------|
|------------------------------------|x2
|-000-000-x2--0--------0-------------|
|-000-000-----0--------0-------------|

W/ Techno Keys
|--------------------------------|
|--------------1111---1111-------|
|--------------1414---1414-------|
|--------------------------------|x2
|-00-00--x2--0------0------------|
|-00-00------0------0------------|


|-------|
|-------|
|-------|
|---0---|
|---0~--|
|---0---|



Repeat Riff 4: 1.55-2.15

Rhythm Guitar
|--------------------|
|--------------------|
|--------------------|        (Figure Strumming)
|--0~-----0--8--5----|    
|--0~-----0--8--5-x4-|
|--0~-----0--8--5----|


Lead Guitar (Correct Me If Im Wrong, It Sounds Right)
|----------------------------|
|----------------------------|
|------------10/12--10--7----|      (Figure Strumming)
|--0~-----0--x-/x---x---xx4-|    
|--0~-----0--8-/10--8---5----|
|--0~-----0------------------|


Repeat Intro Till End
|------------------------------|
|-----------------111111111111-|
|-----------------141414141414-|x2
|------------------------------|     (Second Time Has Slide) 
|---00000-0-x2-----------------|
|---00000-0--------------------|


Thanks for Using My Tab. 
Comment and Rate It.

Lyrics:
Oh the blood, oh the blood, oh the massacre! 

Your love will run and hide,
and leave me on my own.
The true one, will fall,
so hard baby, and thats why this hurts.

I always thought that you would be the one,
but baby now just give me a chance.
I always thought that you would be the one,
but baby just give me a chance.

This is the last chance you get what you want,
and ill never be the one to turn on you,
and i get what i want, and i said,
ill do anything, anything for you.

Ill pull apart this possibility,
from one night stands,
you give it away for just one night,
ill give you all i had.

I always thought that you would be the one,
but baby just give me a chance.

Oh the blood, oh the blood, oh the massacre!
Related for The Peoples Elbow tab