Song name
# A B C D E F G H I J K L M N O P Q R S T U V W X Y Z

Attack Attack - I Kissed A Girl tab

I Kissed A Girl by Attack Attack!
Tabbed by:tancanada

This song is extremely easy.

Tuning: Drop A
Yes, im 100% sure they play it in Drop A. Everything is palm muted.

|---------------------------------------------------------------------------|
|---------------------------------------------------------------------------|
|------------------------------------------2!-------------------------------|
|-0-0--00000--000-0000--0-0-00000-000-0000----------------------------------|
|-0-0--00000--000-0000--0-0-00000-000-0000----------------------------------|
|-0-0--00000--000-0000--0-0-00000-000-0000----------------------------------|

|---------------------------------------------------------------------------|
|---------------------------------------------------------------------------|
|---------------------------------------------------------------------------|
|-0-0--00000--000-0000--0-0-00000-000-0000---000-000------------------------|
|-0-0--00000--000-0000--0-0-00000-000-0000---000-000------------------------|
|-0-0--00000--000-0000--0-0-00000-000-0000---000-000------------------------|

|---------------------------------------------------------------------------|
|---------------------------------------------------------------------------|
|---------------------------------------------------------------------------|
|-0----00000--000-0000--0-0-00000-000-000000--------------------------------|
|-0----00000--000-0000--0-0-00000-000-000000--------------------------------|
|-0----11111--111-1111--1-1-11111-111-111111--------------------------------|

| !  pinch harmonic
| /  slide up
| \  slide down
| h  hammer-on
| p  pull-off
| ~  vibrato
| +  harmonic
| x  Mute note
===============================================================================
Tap to rate this tab
 
# A B C D E F G H I J K L M N O P Q R S T U V W X Y Z