Song name
# A B C D E F G H I J K L M N O P Q R S T U V W X Y Z

Attack Attack - Interlude tab

----------------------------------------------------------------------------
			     Interlude - Attack Attack
----------------------------------------------------------------------------


Tuning:Standard

This is the Keyboard part that starts around 0:55.  All the notes are even.
Notes in parentheses are notes I've changed to make it a bit easier to play.
Being that it wasn't written for the guitar, some parts can be a bit akward.
The original notes are still there.

    C#m

e|---------------------------------------------------------------------------|
B|---------------------------------------------12----------------------------|
G|---------------------13--11------11--------------13--11--------------------|
D|-----11--14--13--11----------14------11--14--------------14--13--14--------|
A|---------------------------------------------------------------------------|
E|---------------------------------------------------------------------------|

    A

e|---------------------------------------------------------------------------|
B|--------------------------------------------12-------14------16--17--------|
G|----------------------------13--11-------------(14)------14----------------|
D|--------13--14--11--14--13--------------14---------------------------------|
A|----12------------------------------12----------12-------------------------|
E|---------------------------------------------------------------------------|

    E

e|---------------------------------------------------------------------------|
B|---------------------------------------------------------------------------|
G|--------13--16------16--13--------------16--13------16------13-------------|
D|----14----------14----------16--14--14----------14------14------16---------|
A|---------------------------------------------------------------------------|
E|---------------------------------------------------------------------------|

    B

e|----------------------------------------------------12--14--11--12---------|
B|------------------------------------------------12-------------------------|
G|--------------------------------------------11-----------------------------|
D|--------13--16------16--13------13------13---------------------------------|
A|----14----------14----------14------14-------------------------------------|
E|---------------------------------------------------------------------------|




That's about all there is to it.
Tap to rate this tab
# A B C D E F G H I J K L M N O P Q R S T U V W X Y Z