Song name
# A B C D E F G H I J K L M N O P Q R S T U V W X Y Z

Attack Attack - You And Me tab

-"You and Me" by Attack! Attack!
-Tabbed by: Beckster of Cadence411
"Feel free to contact me at cadence411@live.com. I'm pretty sure this tab
is pretty accurate. It may have a few mistakes, but I decided to try and
tab it myself since I couldn't find it on the site already."


(#) = Harmonic


Intro (Play whole intro twice)
|----------------------------------------------------------xxxxx-|
|------10-10------------7---------------10-10------------7-xxxxx-|
|-------------9-9---9-9-----7-7----------------9-9---9-9---xxxxx-|
|-0-0------------------------------0-0---------------------xxxxx-|
|----------------------------------------------------------xxxxx-|
|----------------------------------------------------------xxxxx-|

|----------------------------------------------------------------|
|------10-10------------7---------------10-10------------7-------|
|-------------9-9---9-9-----7-7----------------9-9---9-9----(7-7)|
|-0-0------------------------------0-0---------------------------|
|----------------------------------------------------------------|
|----------------------------------------------------------------|


Verse 1
|------------------------------------------------|
|------------------------------------------------|
|-9--9--9--9--7--7--7--7--9--9--9--9--7--7--7--7-|
|-x--x--x--x--x--x--x--x--x--x--x--x--x--x--x--x-|
|-7--7--7--7--5--5--5--5--7--7--7--7--5--5--5--5-|
|------------------------------------------------|

  (play this line twice)
|---------------------------------------|
|---------------------------------------|
|-7-7-7-7-7-7-7-7---9-9--9-7---9-9--9-7-|
|-x-x-x-x-x-x-x-x---x-x--x-x---x-x--x-x-|
|-5-5-5-5-5-5-5-5---7-7--7-5---7-7--7-5-|
|---------------------------------------|


Pre-chorus
|---5---5---5---5---5---5-------5---5---5---5---5-|
|--3-3-3-3-3-3-3-3-3-3-3-3-----3-3-3-3-3-3-3-3-3--|
|-4---4---4---4---4---4---4---4---4---4---4---4---|
|-------------------------------------------------|
|-------------------------------------------------|
|-------------------------------------------------|

|-----------|
|-----------|
|-7-7-7-7-7-|
|-7-7-7-7-7-|
|-5-5-5-5-5-|
|-----------|


Chorus
|---------------------------------------------------------------------|
|---------------------------------------------------------------------|
|-9999999999999999------------------7777777777777777------------------|
|-7777777777777777-5555555555555555-5555555555555555-5555555555555555-|
|-7777777777777777-5555555555555555-5555555555555555-5555555555555555-|
|------------------5555555555555555------------------5555555555555555-|


Verse 2
|------------------------------------------------|
|------------------------------------------------|
|-9--9--9--9--7--7--7--7--9--9--9--9--7--7--7--7-|
|-x--x--x--x--x--x--x--x--x--x--x--x--x--x--x--x-|
|-7--7--7--7--5--5--5--5--7--7--7--7--5--5--5--5-|
|------------------------------------------------|

  (play this line twice)
|---------------------------------------|
|---------------------------------------|
|-7-7-7-7-7-7-7-7---9-9--9-7---9-9--9-7-|
|-x-x-x-x-x-x-x-x---x-x--x-x---x-x--x-x-|
|-5-5-5-5-5-5-5-5---7-7--7-5---7-7--7-5-|
|---------------------------------------|


Pre-chorus
|---5---5---5---5---5---5-------5---5---5---5---5-|
|--3-3-3-3-3-3-3-3-3-3-3-3-----3-3-3-3-3-3-3-3-3--|
|-4---4---4---4---4---4---4---4---4---4---4---4---|
|-------------------------------------------------|
|-------------------------------------------------|
|-------------------------------------------------|

|-----------|
|-----------|
|-7-7-7-7-7-|
|-7-7-7-7-7-|
|-5-5-5-5-5-|
|-----------|


Chorus 2
|---------------------------------------------------------------------|
|---------------------------------------------------------------------|
|-9999999999999999------------------7777777777777777------------------|
|-7777777777777777-5555555555555555-5555555555555555-5555555555555555-|
|-7777777777777777-5555555555555555-5555555555555555-5555555555555555-|
|------------------5555555555555555------------------5555555555555555-|

  (Intro plays in the background during this line)
|---------------------------------------------------------------------|
|---------------------------------------------------------------------|
|-9999999999999999------------------7777777777777777------------------|
|-7777777777777777-5555555555555555-5555555555555555-555555555--------|
|-7777777777777777-5555555555555555-5555555555555555-555555555--------|
|------------------5555555555555555------------------555555555--------|


Bridge (part 1)  (play this line twice)
|------------------------------------------------------------|
|---7-------------(7)------7-----7--------------(7)------7---|
|-9----6-7------(9)-(9)--9---9-9----6-7-------(9)-(9)--9---9-|
|----------7-9---------------------------7-9-----------------|
|------------------------------------------------------------|
|------------------------------------------------------------|

  (part 2)  (part 1 plays in the background)
|---------------------------------------------------|
|---------------------------------------------------|
|-7-7------------7-7-7-7---------7-7------------7-7-|
|-7-7--4-4--5-5--7-7-7-7--5-5-5--7-7--4-4--5-5--7-7-|
|-5-5--4-4--5-5--5-5-5-5--5-5-5--5-5--4-4--5-5--5-5-|
|------4-4--5-5-----------5-5-5-------4-4--5-5------|

|---------------------------------------------------|
|---------------------------------------------------|
|-7-7------------7-7-7-7---------7-7------------7-7-|
|-7-7--4-4--5-5--7-7-7-7--5-5-5--7-7--4-4--5-5--7-7-|
|-5-5--4-4--5-5--5-5-5-5--5-5-5--5-5--4-4--5-5--5-5-|
|------4-4--5-5-----------5-5-5-------4-4--5-5------|


Chorus 3
|--------------------------------------------------------------------|
|--------------------------------------------------------------------|
|-7--------------------------------7777777777777777------------------|
|-7----------------5-5-5-5-5-5-5-5-7777777777777777-5555555555555555-|
|-5----------------5-5-5-5-5-5-5-5-5555555555555555-5555555555555555-|
|------------------5-5-5-5-5-5-5-5------------------5555555555555555-|

  (Intro plays in the background during this line)
|---------------------------------------------------------------------|
|---------------------------------------------------------------------|
|-9999999999999999------------------7777777777777777------------------|
|-7777777777777777-5555555555555555-5555555555555555-555555555--------|
|-7777777777777777-5555555555555555-5555555555555555-555555555--------|
|------------------5555555555555555------------------555555555--------|


Ending riff
|------------------------------------------------------------|
|---7-------------(7)------7-----7--------------(7)------7---|
|-9----6-7------(9)-(9)--9---9-9----6-7-------(9)-(9)--9---9-|
|----------7-9---------------------------7-9-----------------|
|------------------------------------------------------------|
|------------------------------------------------------------|

|------------------------------------------------------------|
|---7-------------(7)------7-----7---------------------------|
|-9----6-7------(9)-(9)--9---9-9----6-7----------------------|
|----------7-9---------------------------7-9~~---------------|
|------------------------------------------------------------|
|------------------------------------------------------------|

I hope you enjoyed the song. Please rate and leave comments!
Tap to rate this tab
 
# A B C D E F G H I J K L M N O P Q R S T U V W X Y Z