Song name
# A B C D E F G H I J K L M N O P Q R S T U V W X Y Z

Attack Attack - You And Me tab

Guitar 1
E-----5-5-------------------5-5-----------------XXXXX------|
B---------5-5-3-5-7-3-3---------5-5-3-5-7-------XXXXX------|
G-----------------------------------------------XXXXX------|
D-----------------------------------------------XXXXX—-----|
A-2-2-------------------2-2---------------------XXXXX------|
E-----------------------------------------------XXXXX------|

E-----5-5-------------------5-5----------------------------|
B---------5-5-3-5-7-3-3---------5-5-3-5-7------------------|
G----------------------------------------------------------|
D----------------------------------------------------------|
A-2-2-------------------2-2--------------------------------|
E----------------------------------------------------------|

Guitar 2
E-----5-5------------------------5-5-----------XX----------|
B---------5h--3-5-7-5-3-3-3----------5h-3-5-7--XX----------|
G----------------------------------------------XX----------|
D----------------------------------------------XX----------|
A-2-2------------------------2-2---------------XX----------|
E----------------------------------------------XX----------|

E-----5-5------------------------5-5-----------------------|
B---------5h--3-5-7-5-3-3-3----------5h-3-5-7--------------|
G----------------------------------------------------------|
D----------------------------------------------------------|
A-2-2------------------------2-2---------------------------|
E----------------------------------------------------------|
Guitar 2 comes in after guitar 1 above has been played and is played slightly faster 
guitar 1 (listen to the song and you'll get it)

Guitar 1
E-----5-5--------------------5-5------------XX-------------|
B---------5-5-3-5-7-3-3----------5-5-3-5-7--XX-------------|
G-------------------------------------------XX-------------|
D-------------------------------------------XX-------------|
A-2-2--------------------2-2----------------XX-------------|
E-------------------------------------------XX-------------|

E-----5-5-------------------5-5----------------------------|
B---------5-5-3-5-7-3-3---------5-5-3-5-7------------------|
G----------------------------------------------------------|
D----------------------------------------------------------|
A-2-2-------------------2-2--------------------------------|
E----------------------------------------------------------|
Tap to rate this tab
# A B C D E F G H I J K L M N O P Q R S T U V W X Y Z