Song name
# A B C D E F G H I J K L M N O P Q R S T U V W X Y Z

Attack Attack - Sexual Man Chocolate tab

-------------------------------------------------------------------------------
			     SEXUAL MAN CHOCOLATE – Attack Attack!
-------------------------------------------------------------------------------

New song from their upcoming album. Probably the easiest song I’ve ever tabbed

Tuning: Drop B

|---------------------------------------------------------------------------|
|---------------------------------------------------------------------------|
|---------------------------------------------------------------------------|
|---------------------------------------------------------------------------|
|-000000-0-000-000-000000-000000-0-000-000-000000---------------------------|
|-000000-0-000-000-000000-000000-0-000-000-000000---(2x)--------------------|
  ...... . ... ... ...... ...... . ... ... ......
|---------------------------------------------------------------------------|
|---------------------------------------------------------------------------|
|---------------------------------------------------------------------------|
|---------------------------------------------------------------------------|
|-000000-----------000000-000000-----------000000---------------------------|
|-000000-0-000-000-000000-000000-0-000-000-000000---(2x)--------------------|
  ......           ...... ......           ......

  CHORUS
|---------------------------------------------------------------------------|
|---------------------------------------------------------------------------|
|7-----777--3-----333--10---101010--5-----555-------------------------------|
|7-----777--3-----333--10---101010--5-----555-------------------------------|
|5-----555--1-----111--8-----8-8-8--3-----333-(2x)—3b3b---------3b3b-000-000|
|-------------------------------------------------------000-000------000-000|
								        ... ...
|---------------------------------------------------------------------------|
|---------------------------------------------------------------------------|
|---------------------------------------------------------------------------|
|-0~~---------------------------------0~~-----------------------------------|
|-0~~---------------------------------0~~-----------------------------------|
|-0~~---------------------------------0~~-----------------------------------|

|---------------------------------------------------------------------------|
|---------------------------------------------------------------------------|
|---------------------------------------------------------------------------|
|---------------------------------------------------------------------------|
|-3p0-0---000-000000-------3p0-0---000-000000-------------------------------|
|----0-0--000-000000----------0-0--000-000000—(3x)--------------------------|
          ... ......               ... ......

   Do the chorus three times

 ENDING BREAKDOWN
|-----------------------------------------------------------------------------|
|-----------------------------------------------------------------------------|
|-----------------------------------------------------------------------------|
|-----------------------------------------------------------------------------|
|-000000-0-00—00--000000-000000-0-00—00--000000-------------------------------|
|-000000-0-000-000-000000-000000-0-000-000-000000---(2x)----------------------|
  ...... . ..  ..  ...... ...... . ..  ..  ......

Kinda sad how simple it is…
************************************

| p   pull-off
| ~   vibrato
| .   Mute note
| b   Bend

************************************
Tap to rate this tab
# A B C D E F G H I J K L M N O P Q R S T U V W X Y Z