Attack Attack - Ac-130 tab

Attack Attack!
"AC-130"
Attack Attack! (2010)

Tuning: Drop Ab (Ab, Eb, Ab, Db, F, Bb)

Short, sweet, and heavy. enjoy!



|---------|-----------------------------------|
|---------|-----------------------------------|
|---------|-----------------------------------|
|---------|-----------------------------------|
|---------|-----------------------------------|
|-0-1/7\1-|-0-0000-00000000--0-0000-0-1b-0-1b-|
            . .... ........  . ....

|--------------------------------------|  
|--------------------------------------|
|--------------------------------------|
|--------------------------------------|
|--------------------------------------|
|-0-0000-00000000--0-0000-0-12\\\-0-11-|
  . .... ........  . ....

|------------------------------------|
|------------------------------------|
|------------------------------------|
|------------------------------------|
|------------------------------------|
|-0-00120-00000000--0-0000-0-1b-0-1b-|
          ........  . ....

|--------------------------------------|
|--------------------------------------|
|--------------------------------------|
|--------------------------------------|
|--------------------------------------|
|-0-0000-00000000--0-0000-0-12\\\-0-11-|
  . .... ........  . ....
(x2)
|-------------------------------------|
|-------------------------------------|
|-------------------------------------|
|-------------------------------------|
|-------------------------------------|
|-0-0000-12b-0-0-0-012\\\-0-111-0-888-|
|--------------------------------|
|--------------------------------|
|--------------------------------|
|--------------------------------|
|--------------------------------|
|-0-0000-12b-0-12b--000--001-001-|

(x4 w/phaser, then x4 again)(sweet a** riff)
|-----------------------------------------|---|
|-----------------------------------------|---|
|-----------------------------------------|---|
|-----------------------------------------|---|
|-----------------------------------------|-0-|
|-000-12b-000-12b-0000-000-1b-000-1b-0000-|-0-|
                                            .

|-------(x2)----------|----|---------------------|
|---------------------|----|---------------------|
|---------------------|----|---------------------|
|---------------------|----|---------------------|
|-0-0-0--0-0--0-0-0-0-|----|-0-0-0--0-0--0-0-0-0-|
|-0-0-0--0-0--0-0-0-0-|-00-|-0-0-0--0-0--0-0-0-0-|
  . . .  . .  . . . .        . . .  . .  . . . .

|------------------------------------------------------|
|------------------------------------------------------|
|------------------------------------------------------|
|-------------------00000000-3333-2222-----------------|
|-0-0-0--0-0--0-0-0-00000000-3333-2222-0--0-0--0-0-0-0-|
|-0-0-0--0-0--0-0-0-00000000-3333-2222-0--0-0--0-0-0-0-|
  . . .  . .  . . .                    .  . .  . . . . 

|------------------------------------------------------|
|------------------------------------------------------|
|------------------------------------------------------|
|------------------------------------------------------|
|-0-0-0--0-0--0-0-0-0--0-0--0-0-0-0--0-0-0--0-0--0-0-0-|
|-0-0-0--0-0--0-0-0-0--0-0--0-0-0-0--0-0-0--0-0--0-0-0-| 
  . . .  . .  . . . .  . .  . . . .  . . .  . .  . . .
Tap to rate this tab
 
# A B C D E F G H I J K L M N O P Q R S T U V W X Y Z