Attack Attack - Turbo Swag tab

 My first tab:D I just copied the only one and am Putting the changes in. Yeah
Intro
|------------------------------------------------------------------|
|------------------------------------------------------------------|
|------------------------------------------------------------------|
|-0---------------3---------------8---------------10---------------|
|-0---------------3---------------8---------------10---------------|
|-0---------------3---------------8---------------10---------------|
					
|---------------------------------------------------------|
|---------------------------------------------------------|
|---------------------------------------------------------|
|---------------------------------------------------------|
|-0000----0000000----------0000----0000000-65-5335--------| 2x
|-0000----0000000011014100-0000----00000000--0------------|
  ...     ... ...          ...     ... ...

 PRE-CHORUS
Rhythm: 
|---------------------------------------------------------------------------|
|---------------------------------------------------------------------------|
|---------------------------------------------------------------------------|
|-8~----------------------10-------------11-11-11-11-11-11------------------|
|-8~----------------------10-------------11-11-11-11-11-11------------------|
|-8~----------------------10-------------11-11-11-11-11-11------------------|
Lead:
|---------------------------------------------------------------------------|
|---------------------------------------------------------------------------|
|---------------------------------------------------------------------------|
|-88888888121212121212121210101010101010101111111111111111b-----------------|
|---------------------------------------------------------------------------|
|---------------------------------------------------------------------------|

 CHORUS
|----------------------------------------------------------------|
|----------------------------------------------------------------|
|----------------------------------------------------------------|
|-0---------------3---------------8---------------5--------------|
|-0---------------3---------------8---------------5--------------|
|-0---------------3---------------8---------------5--------------|

|----------------------------------------------------------------|
|----------------------------------------------------------------|
|----------------------------------------------------------------|
|-0---------------3---------------8---------------10-------------|
|-0---------------3---------------8---------------10-------------|
|-0---------------3---------------8---------------10-------------|

Verse
Pre-Chorus
Chorus

 Bridge
|-------------------------------------------------------|
|-------------------------------------------------------|
|-------------------------------------------------------|
|-------------------------------------------------------|
|-00000---88888--88888888---55555---77777--7777777------|
|-00000---88888--88888888---55555---77777--7777777------|
  ....    ....   ....       ....    ....
|------------------------------------------------------|
|------------------------------------------------------|
|------------------------------------------------------|
|------------------------------------------333777------|
|-00000---88888--88888888---55555---77777--333777------|
|-00000---88888--88888888---55555---77777--333777------|
  ....    ....   ....       ....    ....

CHORUS

 ENDING
|----------|
|----------|
|----------|
|----------|
|-888-10-0-|
|-888-10-0-|
  ...
Tap to rate this tab
 
# A B C D E F G H I J K L M N O P Q R S T U V W X Y Z