Attack Attack - Were Not The Enemy tab

-----------------------------------------------------
We're Not The Enemy - Attack! Attack!
-----------------------------------------------------
Tabbed by: Tom
Email:

Awesome song off Attack! Attack!s(not to be confused with the screamo band)
new album The Latest Fashion. I worked this out just by watching them on the music video
and when I saw them live, so I'm pretty sure this is right. I hope
to get the rest soon, and if I tab the other parts then I'll
get it up ASAP. Enjoy :)

Tuning: Drop D

Intro (0:16)

e|--------------------------------------------------------|
B|--------------------------------------------------------|
G|--------------------------------------------------------|
D|--44-44-4--44-44-4--44-44-4 -------------------- -(x2)--|
A|--44-44-4--44-44-4--44-44-4------9-----8----------------|
D|--44-44-4--44-44-4--44-44-4---77---777------------------|

Verse (0:28)
e|------------------------------------------------------------|
B|------------------------------------------------------------|
G|------------------------------------------------------------|
D|--44 -4 44------------------ (then play main riff at 0:35) -|
A|--44- 4-44--------------------------------------------------|
D|--44- 4-44--------------------------------------------------|

************************************
Tap to rate this tab
 
# A B C D E F G H I J K L M N O P Q R S T U V W X Y Z