Attack Attack - Interlude tab

These tabs are just guide lines to give you an idea of what the song should sound like. 
was originally made for the keyboad but you can play it on a guitar as well. Tuning is standerd.


Intro:
e|-----------------------------------------------------------------|
B|-----------------------------------------------------------------|
G|-----------------------------------------------------------------|
D|-----------------------------------------------------------------|
A|---4--4--4--6--7--0--0--0--6--7--7--7--7--11--9-----------7--6---|
E|-------------------------------------------------7--7--7---------|

Lead:
e|---------------------------------------------------------------------------------------|
B|---------------------------------------------------------------------------------------|
G|---------------------------------------------------------------------------------------|
D|---------6--4-----------------6-----4--6-----------4--6-----9--6--4--------------4-----|
A|---7--4--------7--6--7--7--------7--------6--7--4--------7-----------7--6--7-------6---|
E|---------------------------7-------------------------------------------------7---------|

Solo: (This is tough and will take some time to play it as fast as it is on the actual 
I would suggest taking it slow at first then speed it up once you have it mastered.)
e|--------------------------------------------------------------------|
B|-------------------------------------------12-----------------------|
G|-------------------13--11------11--------------13--11---------------|
D|---11--14--13--11----------14------11--14--------------14--13--14---|
A|--------------------------------------------------------------------|
E|--------------------------------------------------------------------|

e|--------------------------------------------------------------------|
B|-------------------------------------------12------14------16--17---|
G|---------------------------13--11-----------------------------------|
D|-------13--14--11--14--13--------------14---------------------------|
A|---12------------------------------12----------12------12-----------|
E|--------------------------------------------------------------------|

e|--------------------------------------------------------------------|
B|--------------------------------------------------------------------|
G|-------13--16------16--13--------------16--13------16------13-------|
D|---14----------14----------16--14--14----------14------14------16---|
A|--------------------------------------------------------------------|
E|--------------------------------------------------------------------|

e|---------------------------------------------------12--14--11--12---|
B|-----------------------------------------------12-------------------|
G|-------------------------------------------11-----------------------|
D|-------13--16------16--13------13------13---------------------------|
A|---14----------14----------14------14-------------------------------|
E|--------------------------------------------------------------------|

Riff after solo:
e|----------------------------------------------------------------|
B|------------------------------------0--------------0------------|
G|---6-----9--8--9--8--6--8--9--8--9-----9--8--9--8-----8--9--8---|
D|------6---------------------------------------------------------|
A|----------------------------------------------------------------|
E|----------------------------------------------------------------|

Plaese leave comments, tell me what you think and what should be improved if needed. 
and enjoy!
Tap to rate this tab
 
# A B C D E F G H I J K L M N O P Q R S T U V W X Y Z