Attack Attack - Say It To Me tab

Hi! I posted a tab a while ago for Attack! Attack!s 'Say it to me' and didn't know the 
solo/instrumental bit after the first chorus but i think i've got it now so here it is! :)

e|--------------------------------------------|
B|--------------------------------------------|
G|-9-9-9-9-9-9-9-9-12-12-12-11-11-11-7-7------|
D|--------------------------------------------|
A|--------------------------------------------|
E|--------------------------------------------|

e|--------------------------------------------|
B|--------------------------------------------|
G|-9-9-9-9-9-9-9-9------------------------7---|
D|-----------------9-9-9--------------------9-|
A|-----------------------12-12-12-10-10-10----|
E|--------------------------------------------| x2

I hope this is accurate enough, enjoy! :D
Tap to rate this tab
 
# A B C D E F G H I J K L M N O P Q R S T U V W X Y Z