Song name
# A B C D E F G H I J K L M N O P Q R S T U V W X Y Z

Attack Attack - Interlude tab

E|-------------16-14----14-------19-16-14--------------|
B|-14-17-16-14-------17----14-17----------17-16-17-----|
G|-----------------------------------------------------|
D|-----------------------------------------------------|
A|-----------------------------------------------------|
E|-----------------------------------------------------|

E|-------------14----16-14-------19----21----23-24-----|
B|----16-17-------17----------16----------17-----------|
G|-14-------14-------------14-------14-----------------|
D|-----------------------------------------------------|
A|-----------------------------------------------------|
E|-----------------------------------------------------|

E|----16-19----19-16----------19-16----19----16--------|
B|-17-------17-------19-17-19-------17----17----19-----|
G|-----------------------------------------------------|
D|-----------------------------------------------------|
A|-----------------------------------------------------|
E|-----------------------------------------------------|

E|----11-14----14-11----11----11-14-17-24-26-23-24-----|
B|-12-------12-------12----12--------------------------|
G|-----------------------------------------------------|
D|-----------------------------------------------------|
A|-----------------------------------------------------|
E|-----------------------------------------------------|
Tap to rate this tab
 
# A B C D E F G H I J K L M N O P Q R S T U V W X Y Z