Attack Attack - Stick Stickly Synth Breakdown tab

piano melody, this might not be perfect. i figured it out by ear.
--4-------4-----4--7--------7----7--4---------4----4--2------2----2-|
-------5------5---------5------5---------5-------5--------4-----4---|
----6----6---6-6-----6----6---6-6------4---4----4-4-----4--4---4-4--|
--------------------------------------------------------------------|
--------------------------------------------------------------------|
--------------------------------------------------------------------|
guitar chords, other people use diffrent chords in drop tuning. but this is what i like 
and it stays in standard.
----------------------------------------------------------------------|
----------------------------------------------------------------------|
----------------------------------------------------------------------|
--6----------------9----------------6----------------4----------------|
--6----------------9----------------6----------------4----------------|
--4----------------7----------------4----------------2----------------|
listen to the song to get down the chord rythems.
Tap to rate this tab
 
# A B C D E F G H I J K L M N O P Q R S T U V W X Y Z