Song name
# A B C D E F G H I J K L M N O P Q R S T U V W X Y Z

Attack Attack - Smokahontas tab

Band-Attack! Attack!
Song-Smokahontas
Tuning-Drop B (B-F#-B-E-G#-C#)
Tabbed by th_ brck_rcks

Legend:
Palm Mute-_
Bend-b
Bend and Release-br
Vibrato-~

Intro
|--------------------------------------------------------------|
|--------------------------------------------------------------|-_
|--------------------------------------------------------------| _-X2
|--------------------------------------------------------------|-
|00-00--0-000-0-0-0-00--0-0-00----------0-000-0-0-0-00-0-0-00--|
|11-11--1-111-1-1-1-11--1-1-11--3br-3br-1-111-1-1-1-11-1-1-11--|
|__ __  _ ___ _ _ _ __  _ _ __          _ ___ _ _ _ __ _ _ __  |

Verse
|--------------------------------------------------------------|
|--------------------------------------------------------------|
|--------------------------------------------------------------|
|--------------------------------------------------------------|
|00-00--0-000-0-0-0-00--0-0-00----------0-000-0-0-0-00-0-0-00--|
|00-00--0-000-0-0-0-00--0-0-00--3br-3br-0-000-0-0-0-00-0-0-00--|
|__ __  _ ___ _ _ _ __  _ _ __          _ ___ _ _ _ __ _ _ __  |

|--------------------------------------------------------------|
|--------------------------------------------------------------|
|--------------------------------------------------------------|
|--------------------------------------------------------------|
|00-00--0-000-0-0-0-00--0-0-00----------0-000-0-0-0-00-----0-0-|
|00-00--0-000-0-0-0-00--0-0-00----------0-000-0-0-0-00-0-0-0-0-|
|__ __  _ ___ _ _ _ __  _ _ __          _ ___ _ _ _ __ _ _ _ _ |

Chorus
|----------------------------------------------------------------|
|----------------------------------------------------------------|-_
|----------------------------------------------------------------| _-X2
|5-5-5-5-5-5-5-5-8-8-8-8-8-8-8-8-0-0-0-0-0-0-0-0-3-3-3-3-3-3-3-3-|-
|5-5-5-5-5-5-5-5-8-8-8-8-8-8-8-8-0-0-0-0-0-0-0-0-3-3-3-3-3-3-3-3-|
|5-5-5-5-5-5-5-5-8-8-8-8-8-8-8-8-0-0-0-0-0-0-0-0-3-3-3-3-3-3-3-3-|

|----------------------------------------------------------------|
|----------------------------------------------------------------|
|----------------------------------------------------------------|
|8-8-8-8-8-8-8-8-8-8-8-8-8-8-8-8-3-3-3-3-3-3-3-3-7-7-7-7-7-7-7-7-|
|8-8-8-8-8-8-8-8-8-8-8-8-8-8-8-8-3-3-3-3-3-3-3-3-7-7-7-7-7-7-7-7-|
|8-8-8-8-8-8-8-8-8-8-8-8-8-8-8-8-3-3-3-3-3-3-3-3-7-7-7-7-7-7-7-7-|

Verse
|-----------------------------------------------------------|
|-----------------------------------------------------------|
|-----------------------------------------------------------|
|-----------------------------------------------------------|
|3--5--0-1--0-------------8br-3--5--0-1--0---88888855555777-|
|3--5--0-1--0---0000000-00----3--5--0-1--0------------------|
|               ______  __                                  |-_
|                                                           | _-X2
|-----------------------------------------------------------|-
|-----------------------------------------------------------|
|-----------------------------------------------------------|
|-----------------------------------------------------------|
|3--5--0-1--0-------------5br-3--5--0-1--0---88888855555777-|
|3--5--0-1--0---0000000-00----3--5--0-1--0---77777733333555-|
|               ______  __                                  |

|------------------------------------------------------|
|------------------------------------------------------|
|------------------------------------------------------|
|------------------------------------------------------|
|---------------0-----0--------------------0-----3-----|
|0--0--0--1-0-1---1-0---1-0-0--0--0--1-0-1---1-0---1-0-|

|--------------------------------------------------------|
|--------------------------------------------------------|
|--------------------------------------------------------|
|--------------------------------------------------------|
|---------------0-----0--------------------0---------0-0-|
|0--0--0--1-0-1---1-0---1-0-0--0--0--1-0-1---1-0-0-0-0-0-|
|                                                _ _ _ _ |

Chorus
|----------------------------------------------------------------|
|----------------------------------------------------------------|-_
|----------------------------------------------------------------| _-X2
|5-5-5-5-5-5-5-5-8-8-8-8-8-8-8-8-0-0-0-0-0-0-0-0-3-3-3-3-3-3-3-3-|-
|5-5-5-5-5-5-5-5-8-8-8-8-8-8-8-8-0-0-0-0-0-0-0-0-3-3-3-3-3-3-3-3-|
|5-5-5-5-5-5-5-5-8-8-8-8-8-8-8-8-0-0-0-0-0-0-0-0-3-3-3-3-3-3-3-3-|

|----------------------------------------------------------------|
|----------------------------------------------------------------|-_
|----------------------------------------------------------------| _-X2
|8-8-8-8-8-8-8-8-8-8-8-8-8-8-8-8-3-3-3-3-3-3-3-3-7-7-7-7-7-7-7-7-|-
|8-8-8-8-8-8-8-8-8-8-8-8-8-8-8-8-3-3-3-3-3-3-3-3-7-7-7-7-7-7-7-7-|
|8-8-8-8-8-8-8-8-8-8-8-8-8-8-8-8-3-3-3-3-3-3-3-3-7-7-7-7-7-7-7-7-|

Techno Bridge (No Guitar)

Bridge
|----------------------------------------------------------|
|----------------------------------------------------------|-_
|----------------------------------------------------------| _-X2
|---------------------------3--3--3--3-----5--5--5-7--7--7-|-
|---------------0-----3-----3--3--3--3-3-3-5--5--5-7--7--7-|
|0--0--0--1-0-1---1-0---1-0-3--3--3--3-3-3-5--5--5-7--7--7-|
|                                      _ _                 |

|------------------------------------------------------------|
|------------------------------------------------------------|
|------------------------------------------------------------|
|------------------------------------------------------------|
|0-0-0-1--0--4--0-0-0------3----0-0-0-1--0--6--6-6-6-6-1-1-1-|
|0-0-0-1--0--4--0-0-0-1b-0---1b-0-0-0-1--0--6--6-6-6-6-1-1-1-|
|               _ _ _                                        |
|                                                            |
|------------------------------------------------------------|
|------------------------------------------------------------|
|------------------------------------------------------------|
|------------------------------------------------------------|
|-------------------------------------------6--6-6-6-6-1-1-1-|
|-------------------------------------------6--6-6-6-6-1-1-1-|

|------------------------------------------------------------|
|------------------------------------------------------------|
|------------------------------------------------------------|
|------------------------------------------------------------|
|0-0-0-1--0--4--0-0-0------3----0-0-0-1--0--6--6-6-6-6-1-1-1-|
|0-0-0-1--0--4--0-0-0-1b-0---1b-0-0-0-1--0--6--6-6-6-6-1-1-1-|
|               _ _ _                                        |
|                                                            |
|------------------------------------------------------------|
|------------------------------------------------------------|
|------------------------------------------------------------|
|------------------------------------------------------------|
|0------------------------------------------6--6-6-6-6-1-1-1-|
|0------------------------------------------6--6-6-6-6-1-1-1-|

|------------------------------------------------------------|
|------------------------------------------------------------|-_
|------------------------------------------------------------| _-X2
|------------------------------------------------------------|-
|0-0-0-1--0--4--0-0-0------3----0-0-0-1--0--6--6-6-6-6-1-1-1-|
|0-0-0-1--0--4--0-0-0-1b-0---1b-0-0-0-1--0--6--6-6-6-6-1-1-1-|
|               _ _ _                                        |

|--------------------------------|
|--------------------------------|
|--------------------------------|
|--------------------------------|
|1-1-1-1-1--1--1-1--1--1-1-1-1---|
|1-1-1-1-1--1--1-1--1--1-1-1-1---|
|                                |
|--------------------------------|
|--------------------------------|
|--------------------------------|
|--------------------------------|
|----------------------1-1-1-1---|
|----------------------1-1-1-1---|

Breakdown
|-------------------------------------------------------------|
|-------------------------------------------------------------|
|-------------------------------------------------------------|
|-------------------------------------------------------------|
|0-0-0-0-0--0--0-0--0-000000-0-0-0-0-0--0--0-0--0--000000-----|
|1-1-1-1-1--1--1-1--1-111111-1-1-1-1-1--1--1-1--1--111111-3br-|
|_ _ _ _ _  _  _ _  _ ______ _ _ _ _ _  _  _ _  _  ______     |

|-----------------------------------------------------|
|-----------------------------------------------------|
|-----------------------------------------------------|
|-----------------------------------------------------|
|00000--0--0-0--0--0000000-0-0-0-0--0--0-0--0--000000-|
|11111--1--1-1--1--1111111-1-1-1-1--1--1-1--1--111111-|
|_____  _  _ _  _  _______ _ _ _ _  _  _ _  _  ______ |

Outro
|--------------------------------------------|
|--------------------------------------------|
|--------------------------------------------|
|--------------------------------------------|
|--------------------------------------------|
|0--0--0--0--0---3br-0--0---12~~0-0-0-12-0-0-|
Enjoy the song :)
Tap to rate this tab
# A B C D E F G H I J K L M N O P Q R S T U V W X Y Z