Song name
# A B C D E F G H I J K L M N O P Q R S T U V W X Y Z

Attack Attack - If Guns Are Outlawed tab

-------------------------------------------------------------------------------
			     If Guns Are Outlawed - Attack Attack
-------------------------------------------------------------------------------
Tabbed by: Adam Guion
Email:AdamGuion@gmail.com

First of all yeah, I know on the actual album the song is Kickin Wing, but I 
personally prefer their EP version better. 
I'm gonna have to credit squishhh for the tab on Kickin Wing Animal Doctor. This 
tab will largely draw upon that. Also once last thing,
I have very little experience for pinch harmonics(artificial harmonics) so you 
won't see any of those in here.

Tuning: Drop C#

Starts with a little drum solo.
 
Intro[0:06-0:16]
d#|---------------------------------------------------------------------------|
a#|---------------------------------------------------------------------------|
f#|---------------------------------------------------------------------------|
c#|-0~~~~~~~~~~~~-10~~~~~~~~~-7~~~~~~~~~--------------------------------------| X2
g#|-0~~~~~~~~~~~~-8~~~~~~~~~~-5~~~~~~~~~--------------------------------------|
c#|-0~~~~~~~~~~~~-8~~~~~~~~~~-5~~~~~~~~~--------------------------------------|

Post-Intro[0:17-0:26]
d#|------------------------------------------------------------------------------|
a#|------------------------------------------------------------------------------|
f#|--------10--9/10-------10--9/10-----------------------------------------------|
c#|---------------------------------10------7------------------------------------|X2
g#|--0-0---8---7/8--0-0---8---7/8----8--X8--5--X8--------------------------------|
c#|--0-0------------0-0--------------8------5------------------------------------|
     . .            . .          
Chorus[0:27-0:36]
d#|----------------------------------------------------------------------------|
a#|----------------------------------------------------------------------------|
f#|----10-10-10-10-10-----10-10-10-10-10------12-12-12-12-12------9-9-9-9-9----|
c#|-0-----------------0------------------8--------------------5----------------|X2
g#|-0--8--8--8--8--8--0---8--8--8--8--8--8----10-10-10-10-10--5---7-7-7-7-7----|
c#|-0-----------------0------------------8--------------------5----------------|

This thing[0:37-0:46]
d#|--------------------------------------------------------------|
a#|--6-6-6-6-6-6-66-6-6-6-6--------6-6-6-6-6-6-66-6-6-6-6--------|
f#|--9-9-9-9-9-9-99-9-9-9-9--------9-9-9-9-9-9-99-9-9-9-9--------|
c#|--------------------------------------------------------10~~~~|
g#|--------------------------------------------------------------|
c#|--------------------------15/0--------------------------------|

Chug[0:47-0:49]
d#|--------------------------------------------------------------------------|
a#|--------------------------------------------------------------------------|
f#|--------------------------------------------------------------------------|
c#|--------------------0~~~~~~~~---------------------------------------------|
g#|000--000--000--000--0~~~~~~~~---------------------------------------------|
c#|111--111--111--111--0~~~~~~~~---------------------------------------------|
   ...  ...  ...  ...
Repeat that catchy chorus four times![0:50-1:10]

BREAKDOWN!
[1:14-1:43]
d#|-------------------------------------------------------------------------------------|
a#|-------------------------------------------------------------------------------------|
f#|-------------------------------------------------------------------------------------|
c#|-------------------------------------------------------------------------------------|
g#|000-000~~~--000-0-000-000-000-000~~~~-000-0------------------------------------------|
c#|111-111~~~--111-1-111-111-111-111~~~~-111-1---1/12/0---------------------------------|
   ... ...     ... . ... ... ... ...     ... .
d#|-------------------------------------------------------------------------------------|
a#|-------------------------------------------------------------------------------------|
f#|-------------------------------------------------------------------------------------|
c#|-------------------------------------------------------------------------------------|
g#|000-000~~~--000-0-000-000-000-000~~~~-000-0------------------------------------------|
c#|000-000~~~--000-0-000-000-000-000~~~~-000-0--12/0------------------------------------|
   ... ...     ... . ... ... ... ...     ... .
The repeat the entire thing again


Hope you know the speed, bcuz you're on your own for that.
[1:44-2:40]
-------------------------------------------------------------|
-------------------------------------------------------------|
-10---------14--------12---------9--------10-----------------|X4 
----X13--------X3-------X16--------X16------X16--------------|
-8----------12--------10---------7--------8------------------|
-------------------------------------------------------------|

[2:40-2:46]
d#|----------------------------------------|
a#|----------------------------------------|
f#|----------------------------------------|
c#|--------0~~~~~~~~~~---------------------|
g#|--------0~~~~~~~~~~---------------------|
c#|12/0----0~~~~~~~~~~---------------------|


This time it's faster.
[2:47-3:31]
d#|--------------------------------------------------------------|
a#|--------------------------------------------------------------|
f#|----10-------14-------12-------9-----------66-66-66-66-6-6----| 
c#|------X13------X3-------X16-----X16--------99-99-99-99-9-9----|X4 
g#|----8--------12-------10-------7------------------------------|  
c#|--------------------------------------------------------------|

[3:31-3:39]
d#|----------------------------------------------------------|
a#|----------------------------------------------------------|
f#|--66-66-66-66-6-6-----------------------------------------|
c#|--99-99-99-99-9-9--0~~~~~~~~~~~---------------------------|
g#|-------------------0~~~~~~~~~~~---------------------------|
c#|-------------------0~~~~~~~~~~~---------------------------|


FINAL BREAKDOWN[3:40-4:10] *Do the entire thing twice!*
d#|-------------------------------------------------------------------------------------|
a#|-------------------------------------------------------------------------------------|
f#|-------------------------------------------------------------------------------------|
c#|-------------------------------------------------------------------------------------|
g#|00000-00000-0-0-00000----00000-00000--0-0--------------------------------------------|
c#|00000-00000 0-0-00000----00000-00000--0-0-[pinch harmonic, don't know where though]--|
   ..... ..... . . .....    ..... .....  . .
d#|-------------------------------------------------------------------------------------|
a#|-------------------------------------------------------------------------------------|
f#|-------------------------------------------------------------------------------------|
c#|-------------------------------------------------------------------------------------|
g#|00000-00000--0-0-00000---00000-00000-0-0---------------------------------------------|
c#|11111-11111--1-1-11111---11111-11111-1-1--12/0---------------------------------------|
   ..... .....  . . .....   ..... ..... . .
Tap to rate this tab
 
# A B C D E F G H I J K L M N O P Q R S T U V W X Y Z