Song name
# A B C D E F G H I J K L M N O P Q R S T U V W X Y Z

Attack Attack - Outro tab

this is my guitar version for the piano outro by Attack Attack
it's in standard tuning


E|--9-------5---5------|(x2)
A|----7-------7--------|
D|------6---------6----|
G|---------------------|
B|---------------------|
E|---------------------|



E|--9-------5---5----5------7---7-----7-----|
A|----7-------7----7---7------7-----7--7----|
D|------6--------6----------------6---------|
G|------------------------------------------|
B|------------------------------------------|
E|------------------------------------------|



E|----------------------------------------------------------------------|(x2)
A|----------------------------------------------------------------------|
D|----------------------------------------------------------------------|
G|----9--9--9--9------9---9---9---9-------------9--9--9--9----8--8--8--8|
B|---9--9--9--9----10--10--10--10---10-12-----9--9--9--9----7--7--7--7--|
E|----------------------------------------------------------------------|




then for the rest i improvise a little solo for it but you can make what you want(: it's 
not the best tab ever it just sounds great when you play the song with it.
Tap to rate this tab
 
# A B C D E F G H I J K L M N O P Q R S T U V W X Y Z