Song name
# A B C D E F G H I J K L M N O P Q R S T U V W X Y Z

Attack Attack - The Wretched tab

The tuning is Drop A flat/ G sharp (THEY ARE THE SAME NOTE PEOPLE) Some of you will say
"but there arent any open A flat chords played in this tab". Throughout the song (such
as the breakdown)
the open A flat is played...thus making this tuning Drop A flat. I did not feel like
tabbing the whole song, sorry. Enjoy :)

PS. Their is some sliding on the B string from the 15th fret down to the 10th fret on
the transition. Also more notably from the 5th fret back to the 12th on the transition
when the bar repeats. Also, let it ring out!!! (let the notes over lap eachother) theres 
heavy distortion in the song.


Guitar Lead
      S  S  S  S  S  S  S  S  S  S  S  S  S  S  S  S
A#||-----------14----14----14----------14----14----14-|
F||--12-12-12----12----12----15-15-15----15----15s----|
C#||--------------------------------------------------|
G#||--------------------------------------------------|
D#||--------------------------------------------------|
G#||--------------------------------------------------|


   S  S  S  S  S  S  S  S S S S S S S S S
-----------12----12----12-------4---4---4----|
--10-10-10----10----10----5-5-5---5---5s-----|
---------------------------------------------|
---------------------------------------------|
---------------------------------------------|
---------------------------------------------|


Guitar Rythym
     S S S S S S S S  S  S  S  S  S  S  S  S
A#||--------------------------------------------|
F||---------------------------------------------|
C#||--------------------------------------------|
G#||--9-9-9-9-9-9-9-9-12-12-12-12-12-12-12-12---|
D#||--9-9-9-9-9-9-9-9-12-12-12-12-12-12-12-12---|
G#||--9-9-9-9-9-9-9-9-12-12-12-12-12-12-12-12---|


  S S S S S S S S S S S S S S S S
----------------------------------|
----------------------------------|
----------------------------------|
--7-7-7-7-7-7-7-7-2-2-2-2-2-2-2-2-|
--7-7-7-7-7-7-7-7-2-2-2-2-2-2-2-2-|
--7-7-7-7-7-7-7-7-2-2-2-2-2-2-2-2-|
Tap to rate this tab
# A B C D E F G H I J K L M N O P Q R S T U V W X Y Z