Song name
# A B C D E F G H I J K L M N O P Q R S T U V W X Y Z

Attack Attack - The Wretched tab

----------------------------------------------------------------------------
			     The Wretched
			     Attack Attack!
----------------------------------------------------------------------------

Holy Crap... Drop F... I think that explains enough right there... Enjoy!

Username: dkm817 (same on X box live)
Youtube Cover: http://www.youtube.com/watch?v=EoJh6KWRKdc
Email: guitardrums@rockfan.com

Guitar 1 Rhythmic (F  C  F  A# D  G ) (I don’t know the tuning for a 7
Guitar 2 Lead     (F  C  F  A# D  G )  string guitar.)

Tab Guide...
===================================================================
(end of measures)

===================================================================
===================================================================
(end of parts)

===================================================================
===================================================================
===================================================================
(end of song)
(If there is a “continued” it is because the numbers could not
fit on 1 line or connecting times played.)


Intro 1

(x4)

Guitar 2 (Fade In)
G -------------17~~~~~-17~~~~~-17--------------17~~~~~-17~~~~~-17--|
D -15--15--15~~~~~-15~~~~~-15~~~~~-18--18--18~~~~~-18~~~~~-18~~~~~-|
A#-----------------------------------------------------------------|
F -----------------------------------------------------------------|
C -----------------------------------------------------------------|
F -----------------------------------------------------------------|

===================================================================

Guitar 2
G -------------15~~~~~-15~~~~~-15----------------------------------|
D -13--13--13~~~~~-13~~~~~-13~~~~~-------------12~~~~~-12~~~~~-12--|
A#---------------------------------12--12--12~~~~~-12~~~~~-12~~~~~-|
F -----------------------------------------------------------------|
C -----------------------------------------------------------------|
F -----------------------------------------------------------------|

===================================================================
===================================================================


Intro 2

(x2)

Guitar 1
G -----------------------------------------------------------------|
D -----------------------------------------------------------------|
A#-7---7---7---7---7---7---7---7---10--10--10--10--10--10--10--10--|
F -7---7---7---7---7---7---7---7---10--10--10--10--10--10--10--10--|
C -5---5---5---5---5---5---5---5---8---8---8---8---8---8---8---8---|
F -----------------------------------------------------------------|

Guitar 2 (Piano Part)
G ---------17--------------------------17--20------17--17----------|
D -15--18------15--18--20--15--17--18----------18----------18--15--|
A#-----------------------------------------------------------------|
F -----------------------------------------------------------------|
C -----------------------------------------------------------------|
F -----------------------------------------------------------------|

===================================================================

Guitar 1
G -----------------------------------------------------------------|
D -----------------------------------------------------------------|
A#-12--12--12--12--12--12--12--12--12--12--12--12--12--12--12--12--|
F -10--10--10--10--10--10--10--10--12--12--12--12--12--12--12--12--|
C ---------------------------------10--10--10--10--10--10--10--10--|
F -----------------------------------------------------------------|

Guitar 2
G -----------------------------------------------------------------|
D -----17--20------17--17------------------------------17----------|
A#-17----------17----------17--19------16--19------16------16--17--|
F ---------------------------------17----------17------------------|
C -----------------------------------------------------------------|
F -----------------------------------------------------------------|

===================================================================
===================================================================


Verse 1

Guitar 1 & 2
G -----------------------------------------------------------------|
D -----------------------------------------------------------------|
A#-----------------------------------------------------------------|
F -----------------------------------------------------------------|
C -5---5---5---5---5---5-------------------------------------------|
F -------------------------3---3---3---3---3---3---3---3---3---3---|

===================================================================

Guitar 1 & 2
G -----------------------------------------------------------------|
D -----------------------------------------------------------------|
A#-----------------------------------------------------------------|
F -------------------------------------------------5---5---5---5---|
C -3---3---3---3---3---3---------------------------5---5---5---5---|
F -------------------------5---5---5---5---5---5---5---5---5---5---|
Pm                                                 .   .   .   .

===================================================================

Guitar 1 & 2
G -----------------------------------------------------------------|
D -----------------------------------------------------------------|
A#-----------------------------------------------------------------|
F -----------------------------------------------------------------|
C -----------------------------------------------------------------|
F -0---0---0---0---0---0---3---3---3---3---3---3---3---3---3---3---|

===================================================================

Guitar 1 & 2
G -----------------------------------------------------------------|
D -----------------------------------------------------------------|
A#-----------------------------------------------------------------|
F -------------------------------------------------5---5---5---5---|
C -3---3---3---3---3---3---------------------------5---5---5---5---|
F -------------------------5---5---5---5---5---5---5---5---5---5---|
Pm                                                 .   .   .   .

===================================================================

Guitar 1
G -----------------------------------------------------------------|
D -----------------------------------------------------------------|
A#-7---7---7---7---7---7-------------------------------------------|
F -7---7---7---7---7---7---3---3---3---3---3---3---3---3---3---3---|
C -5---5---5---5---5---5---3---3---3---3---3---3---3---3---3---3---|
F -------------------------3---3---3---3---3---3---3---3---3---3---|

Guitar 2 (Piano Part)
G ------------------------t20p15h17t20p15h17t20p15h17t20p15h17t20--|
D -15h18t22p15h18t22p15h18-----------------------------------------|
A#-----------------------------------------------------------------|
F -----------------------------------------------------------------|
C -----------------------------------------------------------------|
F -----------------------------------------------------------------|

===================================================================

Guitar 1
G -----------------------------------------------------------------|
D -----------------------------------------------------------------|
A#-5---5---5---5---5---5-------------------------------------------|
F -5---5---5---5---5---5---5---5---5---5---5---5---5---5---5---5---|
C -3---3---3---3---3---3---5---5---5---5---5---5---5---5---5---5---|
F -------------------------5---5---5---5---5---5---5---5---5---5---|
Pm                                                 .   .   .   .

Guitar 2
G -----------------------------------------------------------------|
D -13h17t20p13h17t20p13h17-----------------------------------------|
A#------------------------t19p12h16t19p12h16t19p12h16t19p12h16t19--|
F -----------------------------------------------------------------|
C -----------------------------------------------------------------|
F -----------------------------------------------------------------|

===================================================================

Guitar 1
G -----------------------------------------------------------------|
D -----------------------------------------------------------------|
A#-7---7---7---7---7---7-------------------------------------------|
F -7---7---7---7---7---7---3---3---3---3---3---3---3---3---3---3---|
C -5---5---5---5---5---5---3---3---3---3---3---3---3---3---3---3---|
F -------------------------3---3---3---3---3---3---3---3---3---3---|

Guitar 2
G ------------------------t20p15h17t20p15h17t20p15h17t20p15h17t20--|
D -15h18t22p15h18t22p15h18-----------------------------------------|
A#-----------------------------------------------------------------|
F -----------------------------------------------------------------|
C -----------------------------------------------------------------|
F -----------------------------------------------------------------|

===================================================================

Guitar 1
G -----------------------------------------------------------------|
D -----------------------------------------------------------------|
A#-5---5---5---5---5---5-------------------------------------------|
F -5---5---5---5---5---5---5---5---5---5---5---5---5---5---5---5---|
C -3---3---3---3---3---3---5---5---5---5---5---5---5---5---5---5---|
F -------------------------5---5---5---5---5---5---5---5---5---5---|
Pm                                                 .   .   .   .

Guitar 2
G -----------------------------------------------------------------|
D -13h17t20p13h17t20p13h17-----------------------------------------|
A#------------------------t19p12h16t19p12h16t19p12h16t19p12h16t19--|
F -----------------------------------------------------------------|
C -----------------------------------------------------------------|
F -----------------------------------------------------------------|

===================================================================
===================================================================


Pre Chorus 1

Guitar 1
G -----------------------------------------------------------------|
D -----------------------------------------------------------------|
A#-7~~~~~~~~~~~~~~~~~~~~~~~~~~~~~~~~~~~~~~~~~~~~~~~~~~~~~~~~~~~~~~-
F -7~~~~~~~~~~~~~~~~~~~~~~~~~~~~~~~~~~~~~~~~~~~~~~~~~~~~~~~~~~~~~~-
C -5~~~~~~~~~~~~~~~~~~~~~~~~~~~~~~~~~~~~~~~~~~~~~~~~~~~~~~~~~~~~~~-
F -----------------------------------------------------------------

Guitar 2
G -------------17~~~~~-17~~~~~-17--------------17~~~~~-17~~~~~-17--|
D -15--15--15~~~~~-15~~~~~-15~~~~~-18--18--18~~~~~-18~~~~~-18~~~~~-|
A#-----------------------------------------------------------------|
F -----------------------------------------------------------------|
C -----------------------------------------------------------------|
F -----------------------------------------------------------------|

===================================================================

Guitar 1
G -----------------------------------------------------------------|
D -----------------------------------------------------------------|
A#-----------------------------------------------------------------|
F -5~~~~~~~~~~~~~~~~~~~~~~~~~~~~~~~~~~~~~~~~~~~~~~~~~~~------------|
C -5~~~~~~~~~~~~~~~~~~~~~~~~~~~~~~~~~~~~~~~~~~~~~~~~~~~------------|
F -5~~~~~~~~~~~~~~~~~~~~~~~~~~~~~~~~~~~~~~~~~~~~~~~~~~~------------|

Guitar 2
G -------------15~~~~~-15~~~~~-15----------------------------------|
D -13--13--13~~~~~-13~~~~~-13~~~~~-------------12~~~~~~------------|
A#---------------------------------12--12--12~~~~~-12~~------------|
F -----------------------------------------------------------------|
C -----------------------------------------------------------------|
F -----------------------------------------------------------------|

===================================================================
===================================================================


Chorus 1

(x2)

Guitar 1
G -----------------------------------------------------------------|
D -----------------------------------------------------------------|
A#-7---7---7---7---7---7---7---7---10--10--10--10--10--10--10--10--|
F -7---7---7---7---7---7---7---7---10--10--10--10--10--10--10--10--|
C -5---5---5---5---5---5---5---5---8---8---8---8---8---8---8---8---|
F -----------------------------------------------------------------|

Guitar 2 (Piano Part)
G ---------17--------------------------17--20------17--17----------|
D -15--18------15--18--20--15--17--18----------18----------18--15--|
A#-----------------------------------------------------------------|
F -----------------------------------------------------------------|
C -----------------------------------------------------------------|
F -----------------------------------------------------------------|

===================================================================

Guitar 1
G -----------------------------------------------------------------|
D -----------------------------------------------------------------|
A#-12--12--12--12--12--12--12--12--12--12--12--12--12--12--12--12--|
F -10--10--10--10--10--10--10--10--12--12--12--12--12--12--12--12--|
C ---------------------------------10--10--10--10--10--10--10--10--|
F -----------------------------------------------------------------|

Guitar 2
G -----------------------------------------------------------------|
D -----17--20------17--17------------------------------17----------|
A#-17----------17----------17--19------16--19------16------16--17--|
F ---------------------------------17----------17------------------|
C -----------------------------------------------------------------|
F -----------------------------------------------------------------|

===================================================================
===================================================================


Verse 2

Guitar 1 & 2
G -----------------------------------------------------------------|
D -----------------------------------------------------------------|
A#-----------------------------------------------------------------|
F -----------------------------------------------------------------|
C -5---5---5---5---5---5-------------------------------------------|
F -------------------------3---3---3---3---3---3---3---3---3---3---|

===================================================================

Guitar 1 & 2
G -----------------------------------------------------------------|
D -----------------------------------------------------------------|
A#-----------------------------------------------------------------|
F -------------------------------------------------5---5---5---5---|
C -3---3---3---3---3---3---------------------------5---5---5---5---|
F -------------------------5---5---5---5---5---5---5---5---5---5---|
Pm                                                 .   .   .   .

===================================================================

Guitar 1 & 2
G -----------------------------------------------------------------|
D -----------------------------------------------------------------|
A#-----------------------------------------------------------------|
F -----------------------------------------------------------------|
C -----------------------------------------------------------------|
F -0---0---0---0---0---0---3---3---3---3---3---3---3---3---3---3---|

===================================================================

Guitar 1 & 2
G -----------------------------------------------------------------|
D -----------------------------------------------------------------|
A#-----------------------------------------------------------------|
F -------------------------------------------------5---5---5---5---|
C -3---3---3---3---3---3---------------------------5---5---5---5---|
F -------------------------5---5---5---5---5---5---5---5---5---5---|
Pm                                                 .   .   .   .

===================================================================

Guitar 1
G -----------------------------------------------------------------|
D -----------------------------------------------------------------|
A#-7---7---7---7---7---7-------------------------------------------|
F -7---7---7---7---7---7---3---3---3---3---3---3---3---3---3---3---|
C -5---5---5---5---5---5---3---3---3---3---3---3---3---3---3---3---|
F -------------------------3---3---3---3---3---3---3---3---3---3---|

Guitar 2 (Piano Part)
G ------------------------t20p15h17t20p15h17t20p15h17t20p15h17t20--|
D -15h18t22p15h18t22p15h18-----------------------------------------|
A#-----------------------------------------------------------------|
F -----------------------------------------------------------------|
C -----------------------------------------------------------------|
F -----------------------------------------------------------------|

===================================================================

Guitar 1
G -----------------------------------------------------------------|
D -----------------------------------------------------------------|
A#-5---5---5---5---5---5-------------------------------------------|
F -5---5---5---5---5---5---5---5---5---5---5---5---5---5---5---5---|
C -3---3---3---3---3---3---5---5---5---5---5---5---5---5---5---5---|
F -------------------------5---5---5---5---5---5---5---5---5---5---|
Pm                                                 .   .   .   .

Guitar 2
G -----------------------------------------------------------------|
D -13h17t20p13h17t20p13h17-----------------------------------------|
A#------------------------t19p12h16t19p12h16t19p12h16t19p12h16t19--|
F -----------------------------------------------------------------|
C -----------------------------------------------------------------|
F -----------------------------------------------------------------|

===================================================================

Guitar 1
G -----------------------------------------------------------------|
D -----------------------------------------------------------------|
A#-7---7---7---7---7---7-------------------------------------------|
F -7---7---7---7---7---7---3---3---3---3---3---3---3---3---3---3---|
C -5---5---5---5---5---5---3---3---3---3---3---3---3---3---3---3---|
F -------------------------3---3---3---3---3---3---3---3---3---3---|

Guitar 2
G ------------------------t20p15h17t20p15h17t20p15h17t20p15h17t20--|
D -15h18t22p15h18t22p15h18-----------------------------------------|
A#-----------------------------------------------------------------|
F -----------------------------------------------------------------|
C -----------------------------------------------------------------|
F -----------------------------------------------------------------|

===================================================================

Guitar 1
G -----------------------------------------------------------------|
D -----------------------------------------------------------------|
A#-5---5---5---5---5---5-------------------------------------------|
F -5---5---5---5---5---5---5---5---5---5---5---5---5---5---5---5---|
C -3---3---3---3---3---3---5---5---5---5---5---5---5---5---5---5---|
F -------------------------5---5---5---5---5---5---5---5---5---5---|
Pm                                                 .   .   .   .

Guitar 2
G -----------------------------------------------------------------|
D -13h17t20p13h17t20p13h17-----------------------------------------|
A#------------------------t19p12h16t19p12h16t19p12h16t19p12h16t19--|
F -----------------------------------------------------------------|
C -----------------------------------------------------------------|
F -----------------------------------------------------------------|

===================================================================
===================================================================


Pre Chorus 2

Guitar 1
G -----------------------------------------------------------------|
D -----------------------------------------------------------------|
A#-7~~~~~~~~~~~~~~~~~~~~~~~~~~~~~~~~~~~~~~~~~~~~~~~~~~~~~~~~~~~~~~-
F -7~~~~~~~~~~~~~~~~~~~~~~~~~~~~~~~~~~~~~~~~~~~~~~~~~~~~~~~~~~~~~~-
C -5~~~~~~~~~~~~~~~~~~~~~~~~~~~~~~~~~~~~~~~~~~~~~~~~~~~~~~~~~~~~~~-
F -----------------------------------------------------------------

Guitar 2
G -------------17~~~~~-17~~~~~-17--------------17~~~~~-17~~~~~-17--|
D -15--15--15~~~~~-15~~~~~-15~~~~~-18--18--18~~~~~-18~~~~~-18~~~~~-|
A#-----------------------------------------------------------------|
F -----------------------------------------------------------------|
C -----------------------------------------------------------------|
F -----------------------------------------------------------------|

===================================================================

Guitar 1
G -----------------------------------------------------------------|
D -----------------------------------------------------------------|
A#-----------------------------------------------------------------|
F -5~~~~~~~~~~~~~~~~~~~~~~~~~~~~~~~~~------------------------------|
C -5~~~~~~~~~~~~~~~~~~~~~~~~~~~~~~~~~------------------------------|
F -5~~~~~~~~~~~~~~~~~~~~~~~~~~~~~~~~~------------------------------|

Guitar 2
G -------------15~~~~~-15~~~~~-15----------------------------------|
D -13--13--13~~~~~-13~~~~~-13~~~~~---------------------------------|
A#---------------------------------12------------------------------|
F -----------------------------------------------------------------|
C -----------------------------------------------------------------|
F -----------------------------------------------------------------|

===================================================================
===================================================================


Chorus 2

(x4)

Guitar 1
G -----------------------------------------------------------------|
D -----------------------------------------------------------------|
A#-7---7---7---7---7---7---7---7---10--10--10--10--10--10--10--10--|
F -7---7---7---7---7---7---7---7---10--10--10--10--10--10--10--10--|
C -5---5---5---5---5---5---5---5---8---8---8---8---8---8---8---8---|
F -----------------------------------------------------------------|

Guitar 2 (Piano Part)
G ---------17--------------------------17--20------17--17----------|
D -15--18------15--18--20--15--17--18----------18----------18--15--|
A#-----------------------------------------------------------------|
F -----------------------------------------------------------------|
C -----------------------------------------------------------------|
F -----------------------------------------------------------------|

===================================================================

Guitar 1
G -----------------------------------------------------------------|
D -----------------------------------------------------------------|
A#-12--12--12--12--12--12--12--12--12--12--12--12--12--12--12--12--|
F -10--10--10--10--10--10--10--10--12--12--12--12--12--12--12--12--|
C ---------------------------------10--10--10--10--10--10--10--10--|
F -----------------------------------------------------------------|

Guitar 2
G -----------------------------------------------------------------|
D -----17--20------17--17------------------------------17----------|
A#-17----------17----------17--19------16--19------16------16--17--|
F ---------------------------------17----------17------------------|
C -----------------------------------------------------------------|
F -----------------------------------------------------------------|

===================================================================
===================================================================


Break Off 1

Guitar 1
G -----------------------------------------------------------------|
D -----------------------------------------------------------------|
A#-----------------------------------------------------------------|
F -----------------------------------------------------------------|
C -----------------------------------------------------------------|
F -0---0---0---0-------0---0-------0-------0---0---0---0-------0---|

===================================================================

Guitar 1
G -----------------------------------------------------------------|
D -----------------------------------------------------------------|
A#-----------------------------------------------------------------|
F -----------------------------------------------------------------|
C -----------------------------------------------------------------|
F -0-------0-------0---0---0---0-------0---0-------0---0---0---0---|

===================================================================

Guitar 1 & 2
G -----------------------------------------------------------------|
D -----------------------------------------------------------------|
A#-----------------------------------------------------------------|
F -----------------------------------------------------------------|
C -----------------------------------------------------------------|
F -0---0---0---0-------0---0-------0-------0---0---0---0-------0---|

===================================================================

Guitar 1
G -----------------------------------------------------------------|
D -----------------------------------------------------------------|
A#-----------------------------------------------------------------|
F -----------------------------------------------------------------|
C -----------------------------------------------------------------|
F -0-------0-------0---0---0---0-------0---0-----------------------|

Guitar 1
G -----------------------------------------------------------------|
D -----------------------------------------------------------------|
A#-----------------------------------------------------------------|
F -----------------------------------------------------------------|
C -----------------------------------------------------------------|
F -0-------0-------0---0---0---0-------------------0---0---0---0---|

===================================================================
===================================================================


Breakdown

(x2)

Guitar 1 & 2
G -----------------------------------------------------------------|
D -----------------------------------------------------------------|
A#-----------------------------------------------------------------|
F -0---0---0---0-------0---0-------0-------------------------------|
C -0---0---0---0-------0---0-------0-------------------------------|
F -0---0---0---0-------0---0-------0-------0---0---0---0-------0---|
Pm .   .   .   .       .   .       .

===================================================================

Guitar 1 & 2
G -----------------------------------------------------------------|
D -----------------------------------------------------------------|
A#-----------------------------------------------------------------|
F ---------12\~~~~-0---0---0---0-------0---0-------0---------------|
C ---------12\~~~~-0---0---0---0-------0---0-------0---------------|
F -0-------12\~~~~-0---0---0---0-------0---0-------0---0-0-0---0---|
Pm                 .   .   .   .       .   .       .

===================================================================

Guitar 1 & 2
G -----------------------------------------------------------------|
D -----------------------------------------------------------------|
A#-----------------------------------------------------------------|
F ---------------------12--13--0---0---0---0---0-------0---0-------|
C ---------------------------------0---0---0---0-------0---0-------|
F -0---0---12--13--10--------------0---0---0---0-------0---0-------|
Pm                                 .   .   .   .       .   .

===================================================================

Guitar 1 & 2
G -----------------------------------------------------------------|
D -----------------------------------------------------------------|
A#-----------------------------------------------------------------|
F -0---------------------------3-----------4-------6---7---6---7---|
C -0---------------------------------------------------------------|
F -0---0-0-0---0---0---0---0-------0---3-------4-------------------|
Pm .

===================================================================
===================================================================


Break Off 2

Guitar 1 & 2
G -----------------------------------------------------------------|
D -----------------------------------------------------------------|
A#-----------------------------------------------------------------|
F -------------------------------------------------0---0---0---0---|
C -------------------------------------------------0---0---0---0---|
F -0---0---0---0-----------0---0---0---0-----------0---0---0---0---|
pm                                                 .   .   .   .

===================================================================
===================================================================


Interlude 1

Guitar 1
G -----------------------------------------------------------------|
D -----------------------------------------------------------------|
A#-7---------------------------------------------------------------|
F -7---------------------------------------------------------------|
C -5---------------------------------------------------------------|
F -----------------------------------------------------------------|

Guitar 2 (x4)
G -------------17~~~~~-17~~~~~-17--------------17~~~~~-17~~~~~-17--|
D -15--15--15~~~~~-15~~~~~-15~~~~~-18--18--18~~~~~-18~~~~~-18~~~~~-|
A#-----------------------------------------------------------------|
F -----------------------------------------------------------------|
C -----------------------------------------------------------------|
F -----------------------------------------------------------------|

===================================================================

Guitar 2 continued
G -------------15~~~~~-15~~~~~-15----------------------------------|
D -13--13--13~~~~~-13~~~~~-13~~~~~-------------12~~~~~-12~~~~~-12--|
A#---------------------------------12--12--12~~~~~-12~~~~~-12~~~~~-|
F -----------------------------------------------------------------|
C -----------------------------------------------------------------|
F -----------------------------------------------------------------|

===================================================================
===================================================================


Chorus 2

(x4)

Guitar 1
G -----------------------------------------------------------------|
D -----------------------------------------------------------------|
A#-7---7---7---7---7---7---7---7---10--10--10--10--10--10--10--10--|
F -7---7---7---7---7---7---7---7---10--10--10--10--10--10--10--10--|
C -5---5---5---5---5---5---5---5---8---8---8---8---8---8---8---8---|
F -----------------------------------------------------------------|

Guitar 2 (Piano Part)
G ---------17--------------------------17--20------17--17----------|
D -15--18------15--18--20--15--17--18----------18----------18--15--|
A#-----------------------------------------------------------------|
F -----------------------------------------------------------------|
C -----------------------------------------------------------------|
F -----------------------------------------------------------------|

===================================================================

Guitar 1
G -----------------------------------------------------------------|
D -----------------------------------------------------------------|
A#-12--12--12--12--12--12--12--12--12--12--12--12--12--12--12--12--|
F -10--10--10--10--10--10--10--10--12--12--12--12--12--12--12--12--|
C ---------------------------------10--10--10--10--10--10--10--10--|
F -----------------------------------------------------------------|

Guitar 2
G -----------------------------------------------------------------|
D -----17--20------17--17------------------------------17----------|
A#-17----------17----------17--19------16--19------16------16--17--|
F ---------------------------------17----------17------------------|
C -----------------------------------------------------------------|
F -----------------------------------------------------------------|

===================================================================
===================================================================


Interlude 2

(x2)

Guitar 1
G -----------------------------------------------------------------|
D -----------------------------------------------------------------|
A#-7---7---7---7---7---7---7---7---10--10--10--10--10--10--10--10--|
F -7---7---7---7---7---7---7---7---10--10--10--10--10--10--10--10--|
C -5---5---5---5---5---5---5---5---8---8---8---8---8---8---8---8---|
F -----------------------------------------------------------------|

Guitar 2 (Piano Part)
G ---------------------------------t20p15h17t20p15h17t20p15h17t20--|
D -15h18t22p15h18t22p15h18t22p15h18--------------------------------|
A#-----------------------------------------------------------------|
F -----------------------------------------------------------------|
C -----------------------------------------------------------------|
F -----------------------------------------------------------------|

===================================================================

Guitar 1
G -----------------------------------------------------------------|
D -----------------------------------------------------------------|
A#-12--12--12--12--12--12--12--12--12--12--12--12--12--12--12--12--|
F -10--10--10--10--10--10--10--10--12--12--12--12--12--12--12--12--|
C ---------------------------------10--10--10--10--10--10--10--10--|
F -----------------------------------------------------------------|

Guitar 2
G -----------------------------------------------------------------|
D -13h17t20p13h17t20p13h17t20p13h17--------------------------------|
A#---------------------------------t19p12h16t19p12h16t19p12h16t19--|
F -----------------------------------------------------------------|
C -----------------------------------------------------------------|
F -----------------------------------------------------------------|

===================================================================
===================================================================


Outro

(x4)

Guitar 2 (Piano Part)
G ---------17--------------------------17--20------17--17----------|
D -15--18------15--18--20--15--17--18----------18----------18--15--|
A#-----------------------------------------------------------------|
F -----------------------------------------------------------------|
C -----------------------------------------------------------------|
F -----------------------------------------------------------------|

===================================================================

Guitar 2
G -----------------------------------------------------------------|
D -----17--20------17--17------------------------------17----------|
A#-17----------17----------17--19------16--19------16------16--17--|
F ---------------------------------17----------17------------------|
C -----------------------------------------------------------------|
F -----------------------------------------------------------------|

===================================================================
===================================================================
===================================================================


Tab Legend
h  - hammer-on
p  - pull-off
/  - slide up
\  - slide down
ps/- pickslide up
ps\- pickslide down
~  - let ring
pm.- palm mute
b  - bend
r  - return from bend
t  - finger tapping
*  - harmonic
x  - dead note
^  - Whammy bar
^\ - Whammy bar (hold down)

That’s the end of it! I hope this helped, and be sure to check out my cover if you are 
having problems with the tab. Thanks, oh and one last thing... ROCK OUT!!!!
Tap to rate this tab
# A B C D E F G H I J K L M N O P Q R S T U V W X Y Z