Song name
# A B C D E F G H I J K L M N O P Q R S T U V W X Y Z

Attack Attack - The Wretched tab

-------------------------------------------------------------------------------
                             The Wretched - Attack Attack!
-------------------------------------------------------------------------------
Tabbed by: Nate Furman
Email: Killedbyncf@gmail.com

Tuning: This was transposed in Standard (E,A,D,G,B,e)

e|-------2----2---2-------------2----2----2------------0----0-----0---------|
B|-0-0-0----0---0--------3-3-3----3----3------------------------------------|
G|-----------------------------------------------2-2-2-----2----2-----------|
D|--------------------------------------------------------------------------|
A|--------------------------------------------------------------------------|
E|--------------------------------------------------------------------------|


e|---------------------------------------------------------------------------|
B|---------9---9---9---------------------------------------------------------|
G|--9-9-9----9---9-----------------------------------------------------------|
D|---------------------------------------------------------------------------|
A|---------------------------------------------------------------------------|
E|---------------------------------------------------------------------------|

This was made for beginners, enjoy =)
Tap to rate this tab
 
# A B C D E F G H I J K L M N O P Q R S T U V W X Y Z