Song name
# A B C D E F G H I J K L M N O P Q R S T U V W X Y Z

Attack In Black - Now That Im Dying tab

--------------------------------------------------------------------
               Now That I'm Dying - Attack In Black
--------------------------------------------------------------------
Tabbed by:Chris AKA HolyYetti

Tuning: Standard

Enjoy and please rate and/or leave a comment.

Intro:
e|-------------------------------------------|
B|--3---5---3---3---0---0---1---1---1---1----|
G|----0---0---0---0---0---0---0---0---0---0--| x2
D|-------------------------------------------|
A|--3---5---3--------------------------------|
E|------------------3-------1----------------|

Verse:
e|-------------------------------------------|
B|--3---5---3---3---0---0---1---1---1---1----|
G|----0---0---0---0---0---0---0---0---0---0--| x3
D|-------------------------------------------|
A|--3---5---3--------------------------------|
E|------------------3-------1----------------|

Chorus:
e|-----------------------------------------------------------|
B|--3---3---3---3---3---3---3---3---3---3---3---3---3---3----|
G|----0---0---0---0---0---0---0---0---0---0---0---0---0---0--| x1
D|-----------------------------------------------------------|
A|--0---------------3----------------------------------------|
E|--------------------------3--------------(3)---------------|

Verse:
e|-------------------------------------------|
B|--3---5---3---3---0---0---1---1---1---1----|
G|----0---0---0---0---0---0---0---0---0---0--| x3
D|-------------------------------------------|
A|--3---5---3--------------------------------|
E|------------------3-------1----------------|

Chorus:
e|-----------------------------------------------------------|
B|--3---3---3---3---3---3---3---3---3---3---3---3---3---3----|
G|----0---0---0---0---0---0---0---0---0---0---0---0---0---0--| x2
D|-----------------------------------------------------------|
A|--0---------------3----------------------------------------|
E|--------------------------3---------------3----------------|

Verse:
e|-------------------------------------------|
B|--3---5---3---3---0---0---1---1---1---1----|
G|----0---0---0---0---0---0---0---0---0---0--| x3
D|-------------------------------------------|
A|--3---5---3--------------------------------|
E|------------------3-------1----------------|

Chorus:
e|-----------------------------------------------------------|
B|--3---3---3---3---3---3---3---3---3---3---3---3---3---3----|
G|----0---0---0---0---0---0---0---0---0---0---0---0---0---0--|
D|-----------------------------------------------------------|
A|--0---------------3----------------------------------------|
E|--------------------------3---------------3----------------|

e|-----------------------------------------------------------|
B|--3---3---3---3---3---3---3---3---3---3---3---3---3---3----|
G|----0---0---0---0---0---0---0---0---0---0---0---0---0---0--|
D|-----------------------------------------------------------|
A|--0---------------3----------------------------------------|
E|--------------3------------3---------------3---------------|

Bridge:
e|-------------------------------------------|
B|--3---5---3---3---0---0---1---1---1---1----|
G|----0---0---0---0---0---0---0---0---0---0--| x3
D|-------------------------------------------|
A|--3---5---3--------------------------------|
E|------------------3-------1----------------|

e|---------------------------------------------------|
B|-/3---3---3---3---3---3---3---3---3---3---3---3----|
G|----0---0---0---0---0---0---0---0---0---0---0---0--|
D|---------------------------------------------------|
A|--0---------------3--------------------------------|
E|--------------3-----------3------------------------|

e|-----------------------------------------------------------|
B|--3---3---3---3---3---3---3---3---3---3---3---3---3---3----|
G|----0---0---0---0---0---0---0---0---0---0---0---0---0---0--|
D|-----------------------------------------------------------|
A|--0---------------3----------------------------------------|
E|--------------3-----------3--------------------------------|

Verse:
e|---------------------------------------------------|
B|--3---5---3---3---0---0---1---1---1---1---1---1----|
G|----0---0---0---0---0---0---0---0---0---0---0---0--| x3
D|---------------------------------------------------|
A|--3---5---3----------------------------------------|
E|------------------3-------1------------------------|

Chorus/Outro:
e|-----------------------------------------------------------|
B|--3---3---3---3---3---3---3---3---3---3---3---3---3---3----|
G|----0---0---0---0---0---0---0---0---0---0---0---0---0---0--|
D|-----------------------------------------------------------|
A|--0---------------3-------------------0--------------------|
E|--------------------------3---------------3----------------|

e|-----------------------------------------------------------|
B|--3---3---3---3---3---3---3---3---3---3---3---3---3---3----|
G|----0---0---0---0---0---0---0---0---0---0---0---0---0---0--|
D|-----------------------------------------------------------|
A|--0---------------3----------------------------------------|
E|--------------3-----------3---------------3----------------|

e|-----------------------------------------------------------|
B|--3---3---3---3---3---3---3---3---3---3---3---3---3---3----|
G|----0---0---0---0---0---0---0---0---0---0---0---0---0---0--|
D|-----------------------------------------------------------|
A|--0---------------3-------------------0--------------------|
E|--------------3-----------3---------------3----------------|

e|-----------------------------|
B|--3---3---3---3---3---3---3--|
G|----0---0---0---0---0---0-0--|
D|--------------------------0--|
A|--0---------------3----------|
E|--------------3-----------3--|

Lyrics:

It's so hard to find out
Cause I'm so far behind them
I wish I was a lion

Now that I'm dying

Why's it such a mystery
Is this how it's supposed to be
No one comes too close to me

Now that I'm dying
Now that I'm dying

I wish my legs would work again
I'd run as fast as I can
Never to come back again

But Now I'm dying
Now I'm dying

(Bridge - no vocals)

Where will darkness take me
And will it take me safely
And who will be there waiting

Now that I'm dying
Now that I'm dying
Now that I'm dying
Now that I'm dying
Tap to rate this tab
# A B C D E F G H I J K L M N O P Q R S T U V W X Y Z