Song name
# A B C D E F G H I J K L M N O P Q R S T U V W X Y Z

Attack In Black - Youre Such An Only Child tab

----------------------------------------------------------------------------
               You're Such an Only Child - Attack In Black
----------------------------------------------------------------------------
Tabbed by: Chris AKA HolyYetti

Tuning: Standard

I love the way that Ian sings and plays bass while Ian plays drums. Enjoy
and please rate and/or leave a comment.

Intro (Only Daniel is playing this part):
e|---------3----------------------|
B|--/5\3/5---5-3\1-------1-1------|
G|-------------------0h2-----0----|
D|-----------------3--------------|
A|---0---------------------3------|
E|-----------------------------3--|

e|---------3----------------------|
B|--/5\3/5---5-3\1-------1-1------|
G|-------------------0h2-----0----|
D|-----------------3-----------2--|
A|---0---------------------3------|
E|--------------------------------|

e|---------3----------------------|
B|--/5\3/5---5-3\1-------1-1------|
G|-------------------0h2-----0----|
D|-----------------3--------------|
A|---0---------------------3------|
E|-----------------------------3--|

e|---------3----------------------|
B|--/5\3/5---5-3\1-------1-1------|
G|-------------------0h2----------|
D|-----------------3--------------|
A|---0---------------------3------|
E|--------------------------------|

Verse (Only Daniel):
e|---------3----------------------|
B|--/5\3/5---5-3\1-------1-1------|
G|-------------------0h2-----0----|
D|-----------------3--------------|
A|---0---------------------3------|
E|-----------------------------3--|

e|---------3-------------------3--|
B|--/5\3/5---5-3\1-------1-1------|
G|-------------------0h2-----0----|
D|-----------------3--------------|
A|---0---------0-----------3------|
E|--------------------------------|

e|---------3----------------------|
B|--/5\3/5---5-3\1-------1-1------|
G|-------------------0h2-----0----|
D|-----------------3--------------|
A|---0---------------------3------|
E|-----------------------------3--|

e|---------3----------------------|
B|--/5\3/5---5-3\1-------1--------|
G|-------------------0h2----------|
D|-----------------3--------------|
A|---0----------------------------|
E|-------------------------3------|

Chorus (Both Daniel and Spencer):
e|---------------------------------------------------|
B|---------------------------------------------------|
G|--------------------7-7-7-------------------5-5-5--| x2
D|--7-7-7-7-7-7-7-7-7-7-7-7-5-5-5-5-5-5-5-5-5-5-5-5--|
A|--7-7-7-7-7-7-7-7-7-5-5-5-5-5-5-5-5-5-5-5-5-3-3-3--|
E|--5-5-5-5-5-5-5-5-5-------3-3-3-3-3-3-3-3-3--------|

Verse (Only Daniel):
e|---------3----------------------|
B|--/5\3/5---5-3\1-------1-1------|
G|-------------------0h2-----0----|
D|-----------------3--------------|
A|---0---------------------3------|
E|-----------------------------3--|

e|---------3-------------------3--|
B|--/5\3/5---5-3\1-------1-1------|
G|-------------------0h2-----0----|
D|-----------------3--------------|
A|---0---------------------3------|
E|--------------------------------|

e|---------3----------------------|
B|--/5\3/5---5-3\1-------1-1------|
G|-------------------0h2-----0----|
D|-----------------3--------------|
A|---0---------------------3------|
E|-----------------------------3--|

e|---------3----------------------|
B|--/5\3/5---5-3\1-------1-1------|
G|-------------------0h2----------|
D|-----------------3--------------|
A|---0---------------------3------|
E|--------------------------------|

Chorus (Both Daniel and Spencer):
e|---------------------------------------------------|
B|---------------------------------------------------|
G|--------------------7-7-7-------------------5-5-5--| x2
D|--7-7-7-7-7-7-7-7-7-7-7-7-5-5-5-5-5-5-5-5-5-5-5-5--|
A|--7-7-7-7-7-7-7-7-7-5-5-5-5-5-5-5-5-5-5-5-5-3-3-3--|
E|--5-5-5-5-5-5-5-5-5-------3-3-3-3-3-3-3-3-3--------|

Bridge/Outro (Both Daniel and Spencer):
e|---------------------------|
B|---------------------------|
G|--------------5-5-5--------| x3
D|--7-7-7-------5-5-5-5-5-5--|
A|--7-7-7-------3-3-3-5-5-5--|
E|--5-5-5-------------3-3-3--|

e|---------------------------|
B|---------------------------|
G|--7-7-7-5-5-5--------------|
D|--7-7-7-5-5-5-5-5-5-7\-----|
A|--5-5-5-3-3-3-5-5-5-7\-----|
E|--------------3-3-3-5\-----|

Lyrics:
You'll never learn your lesson
You'll be left behind
When all is in the open
I'm the one who will be unkind

So long I've been watching
Nothing seems to change your mind
Soon they'll be no one with you
Then you will feel my size.

You're such an only child
You're such an only child
You're such an only child

Who will grow so tired



And that's it! Have fun, cheers.
Tap to rate this tab
 
# A B C D E F G H I J K L M N O P Q R S T U V W X Y Z