Song name
# A B C D E F G H I J K L M N O P Q R S T U V W X Y Z

Attack In Black - Im A Rock tab

Highlighted       Show chord diagrams
----------------------------------------------------------------------------
                       I'm A Rock - Attack In Black
----------------------------------------------------------------------------
Tabbed by: Chris

Tuning: I play it with a Capo on the 2nd fret, although you don't have to,
but this tab is in relation to the capo.

Chords:
    F    A/F  G#m/F  C#m
e|--0-----0-----0-----0---|
B|--0-----0-----0-----0---|
G|--1-----1-----1-----1---|
D|--2-----2-----2-----2---|
A|--2-----0-----x-----4---|
E|--0-----------2---------|

Intro:
F

Verse:

F
Everything's so clear today
A/F
I'm finding the right words to say
F
Just how I let the whole thing fall
A/F
And how it won't hurt me at all
F
No

Chorus:

      G#m/F F     A/F
'Cause I'm  a rock
    G#m/F F         A/F
Who can't be stopped
     G#m/F F         A/F
It's ne  - ver enough
         G#m/F F               G#m/F        A/F  F  
No, it's never enough when you live without love

Verse 2:

F
Tell me is there a plan, to work this out?
A/F
I need someone to dream about
F
Bring my eyes to something new
A/F
'Cause I'm tired of never caring about you

Chorus: 

      G#m/F F     A/F
'Cause I'm  a rock
    G#m/F F         A/F
Who can't be stopped
     G#m/F F         A/F
It's ne  - ver enough
         G#m/F F               C#m        A/F  F  
No, it's never enough when you live without love

Outro: 

F      A/F      F      A/F     F

Acordian-esque outro riff:
e|----------------------|
B|--5--------------5-7--|
G|---------4-6----------|
D|----------------------|
A|----------------------|
E|----------------------|

Keyboard outro riff:
e|--------7----------|
B|--9-7-9---9-7-9----|
G|----------------9--|
D|-------------------|
A|-------------------|
E|-------------------|

There you have it, Attack In Black kick ass, rate this tab, leave a
comment, enjoy!
Tap to rate this tab
# A B C D E F G H I J K L M N O P Q R S T U V W X Y Z