Song name
# A B C D E F G H I J K L M N O P Q R S T U V W X Y Z

Attack In Black - The Greater Niagara Circle Route tab

Help us improve GuitareTab! Take a short survey!
THE GREATER NIAGARA CIRCLE ROUTE
Band: Attack In Black
Album: Years (by one thousand fingertips)

Intro

e-----------------------------------|
B-----------------------------------|
G-----------------------------------|
D-----------------------------------|
A--9-7-9-12-9-9-7-5---7-5-0-2-5-2-5-|
D--0-0-0-0--0-0-0-0-5-0-0-----------|

e----------------------------------------------|
B----------------------------------------------|
G----------------------------------------------|
D----------------------------------------------|
A--9-7-9-12-9-9-7-5---7-5-0-2-5-2-5~-0-2-5-2-5~|
D--0-0-0-0--0-0-0-0-5-0-0----------------------|


Verse                               

e-----------------------------------|
B-----------------------------------|
G-----------------------------------|
D-----------------------------------|
A--9-7-9-12-9-9-7-5---7-5-0-2-5-2-5-|
D--0-0-0-0--0-0-0-0-5-0-0-----------|

e----------------------------------------------|
B----------------------------------------------|
G----------------------------------------------|
D----------------------------------------------|
A--9-7-9-12-9-9-7-5---7-5-0-2-5-2-5~-0-2-5-2-5~|
D--0-0-0-0--0-0-0-0-5-0-0----------------------|

e-----------------------------------|
B-----------------------------------|
G-----------------------------------|
D-----------------------------------|
A--9-7-9-12-9-9-7-5---7-5-0-2-5-2-5-|
D--0-0-0-0--0-0-0-0-5-0-0-----------|

e-----------------------------------------------------|
B-----------------------------------------------------|
G-----------------------------------------------------|
D-----------------------------------------------------|
A--9-7-9-12-9-9-7-5---7-5-0-2-5-2-555-777-999-121212--|
D--0-0-0-0--0-0-0-0-5-0-0-----------------------------|


Chorus (Continuous Strumming) Repeat as necessary

e----------------------------|
B----------------------------|
G-----9--7--7-----9----------|
D--7--9--7--7--7--9----------|
A--7--7--5--5--7--7----------|
D--7-----------7-------------|

Post Chorus (Lightly)

e----------------------------|
B----------------------------|
G----------------------------|
D----------------------------|
A-999999999999999999999------|
D----------------------------|

Verse                               

e-----------------------------------|
B-----------------------------------|
G-----------------------------------|
D-----------------------------------|
A--9-7-9-12-9-9-7-5---7-5-0-2-5-2-5-|
D--0-0-0-0--0-0-0-0-5-0-0-----------|

e----------------------------------------------|
B----------------------------------------------|
G----------------------------------------------|
D----------------------------------------------|
A--9-7-9-12-9-9-7-5---7-5-0-2-5-2-5~-0-2-5-2-5~|
D--0-0-0-0--0-0-0-0-5-0-0----------------------|

e-----------------------------------|
B-----------------------------------|
G-----------------------------------|
D-----------------------------------|
A--9-7-9-12-9-9-7-5---7-5-0-2-5-2-5-|
D--0-0-0-0--0-0-0-0-5-0-0-----------|

e------------------------------------------------------|
B------------------------------------------------------|
G------------------------------------------------------|
D------------------------------------------------------|
A--9-7-9-12-9-9-7-5---7-5-0-2-5-2-555-777-999-121212---|
D--0-0-0-0--0-0-0-0-5-0-0------------------------------|


Chorus (Continuous Strumming) Repeat as necessary

e----------------------------|
B----------------------------|
G-----9--7--7-----9----------|
D--7--9--7--7--7--9----------|
A--7--7--5--5--7--7----------|
D--7-----------7-------------|

Post Chorus (Lightly) to the end

e----------------------------|
B----------------------------|
G----------------------------|
D----------------------------|
A-999999999999999999999------|
D----------------------------|
Related for The Greater Niagara Circle Route tab