Song name
# A B C D E F G H I J K L M N O P Q R S T U V W X Y Z

Attack In Black - Young Leaves tab

Capo 2nd.


e------------------7-----------------------------------------------------|
B-----7------------7----------------12----------12-------14s--12s--9-----|
G---9---8-*8---6-8-----8---8-9-11---------9---------9----13s--11s--9-----|
D-9---------9-----------9--------11----11---11-------11------------------|
A------------------------------------------------------------------------|
E------------------------------------------------------------------------|


e------------------------------------------------------------------------|
B------12-11-9---------------------------------7-------------------------|
G-11-9-9--9--9-11------11-8------------------9---8--Restart-at-*---------|
D------------------8h9------11-9-----9-11-9------------------------------|
A--------------------------------11--------------------------------------|
E------------------------------------------------------------------------|

Timing will be difficult to grab, just listen to the song a lot.
Tap to rate this tab
 
# A B C D E F G H I J K L M N O P Q R S T U V W X Y Z