Song name
# A B C D E F G H I J K L M N O P Q R S T U V W X Y Z

Attack In Black - Im Going To Forget tab

This song was just too good not to attempt tabbing, but I am only this far. Hope this 
some one out and apologies for any mistakes!

Capo up on the fifth fret

e|--------0------4------2-0----2-0--|
B|---------0------5-----------------|
G|-------------2--------------------| x 3, and on the last one end with
D|--------------------2-------2-----|
A|----------------------------------|
E|---0h2----------------------------|

e|---------------------|
B|---------------------|
G|---------------------|
D|---4--2--------------|
A|----------4----2-0---|
E|---------------------|

and there are some other notes in there too but thats the meat and potatoes of it i 
and the chords might have something to do with E, F#, and A.
Tap to rate this tab
 
# A B C D E F G H I J K L M N O P Q R S T U V W X Y Z