Song name
# A B C D E F G H I J K L M N O P Q R S T U V W X Y Z

Attack In Black - Leaving Your Death In A Flowerbed chords

Highlighted       Show chord diagrams
From the album "Years (by One Thousand Fingertips)"
Just adding to JONOMAMO's tab



Standard tuning
CAPO ON 3RD!

Chords used (relative to capo):

    C      F      Am     G
e|--0--||--1--||--0--||--3--|
B|--1--||--1--||--1--||--3--|
G|--0--||--2--||--2--||--0--|
D|--2--||--3--||--2--||--0--|
A|--3--||--3--||--0--||--2--|
E|--0--||--x--||--0--||--3--|


Intro riff:

    G                G                  F
e|--0----0-----3-----3-----5-----5---------------1--0---|
B|----1-----1-----1-----1-----8-----8---0--1--3---------|
G|------------------------------------------------------|  X 4
D|------------------------------------------------------|
A|------------------------------------------------------|
E|------------------------------------------------------|



Verse:

C            Am           F     C
Leaving your dawn so that I can sleep

C            Am           F     C
Leaving your dawn so that I can sleep

C        Am      F  G   C 
Leave me in your garden now

C        Am      F  G   C 
Leave me in your garden now


Chorus:

Am    G  C  Am    G    C         G               Am                 C
Leave me dreaming underneath the blossom of your fragrance this spring

Am    G  C  Am    G    C         G               Am                 C
Leave me dreaming underneath the blossom of your fragrance this spring

C  F

(Intro riff)


Chorus:

C            Am         F     C
Leaving your death in a flowerbed

C            Am         F     C
Leaving your death in a flowerbed

C        Am        F     G      C 
Leave me come your dawn, dear, now

C        Am        F     G      C 
Leave me come your dawn, dear, now


Chorus:

Am    G  C  Am    G    C         G               Am             C 
Leave me dreaming underneath the blossom of your fragrance this spring


Am    G  C  Am    G    C         G               Am             C 
Leave me dreaming underneath the blossom of your fragrance this spring


Outro:

G  G  F
G  G  F
G  G  F
G
Tap to rate this tab
# A B C D E F G H I J K L M N O P Q R S T U V W X Y Z