Song name
# A B C D E F G H I J K L M N O P Q R S T U V W X Y Z

Attack In Black - Rope tab

I mainly went off the live version of this song for the tab. The album version is 
half a step down and played acoustic. It works for both either way.


Main riff
e|--------------------------------3---------------3--------|
B|--8-7-5/3---0-----------0h1-0---0---0---0h1-0---0---0----|
G|--------------2-0-------0---0-------0---0---0-------0----|
D|------------------0--------------------------------------|
A|--0---------3--------(2)-----(2)-(2)-(2)-----(2)-(2)-----|
E|----------------------3-------3---3---3-------3---3------|

Time for the gallow's hanging...
e|--0--------0--------0--------|
B|--1--------1--------0--------|
G|--2--------0--------0--------|
D|--2--------2--------0--------|
A|--0--------3--------2--------|
E|-----------3--------3--------|

What it feels like, at the end of your rope...
e|------0------------------0-----------0--------|
B|------0------------------1-----------0--------|
G|------0------------------0-----------0--------|
D|------2------------------2-----------0--------|
A|------2------------------3-----------2--------|
E|------0------------------3-----------3--------|
Tap to rate this tab
# A B C D E F G H I J K L M N O P Q R S T U V W X Y Z