Song name
# A B C D E F G H I J K L M N O P Q R S T U V W X Y Z

Attack In Black - Broken Things tab

Song: Broken Things
Artist: Attack In Black
Album: Marriage/Widows E.P.
Tabbed By: Wade Ouellet
Tuning: D A D G B E

Intro

|--------------------------------|
|--------------------------7-5---|
|----------------------4-6-------|
|----2--0-2---------2------------|
|---4-4-----2-0----4-4-----------|
|-44-------------44--------------|
  ...            ...

|-------------------------------------|
|----------------------5/7-5----------|
|----------------------------6-\2-2---|
|----2--0-2---------2-----------------|
|---4-4-----2-0----4-4----------------|
|-44-------------44-------------------|
  ...            ...

Verse

|-------------------------0-------|
|---------------------------0-----|
|----------------6----2-----------|
|-7----7----7----4----0-------7---|
|-7----7----7----4----0-------7---|
|-7----7----7----4----0-------7---|

|---------------------0------------------------|
|-----------------------0----------------------|
|-----------6----2-----------------------------|
|-7----7----4----0--------7-7-7-77--7-7-7-77---|
|-7----7----4----0--------7-7-7-77--7-7-7-77---|
|-7----7----4----0--------7-7-7-77--7-7-7-77---|

|--------------------0---|
|------------------------|
|-----------6------------|
|-7----7----4----0-------|
|-7----7----4----0-------|
|-7----7----4----0-------|

|--------------------------------|
|--------------------------7-5---|
|----------------------4-6-------|
|----2--0-2---------2------------|
|---4-4-----2-0----4-4-----------|
|-44-------------44--------------|
  ...            ...

|-------------------------------------|
|----------------------5/7-5----------|
|----------------------------6-\2-2---|
|----2--0-2---------2-----------------|
|---4-4-----2-0----4-4----------------|
|-44-------------44-------------------|
  ...            ...

Chorus

|-------|
|-------|
|-------|
|-7-7---|
|-7-7---|
|-7-7---|

|--------------------|
|-10-----------------|
|-9---------6----2---|
|-7---------4----0---|
|-----------4----0---|
|-----------4----0---|

Interlude

|------------------------------------------|
|------------------------------------------|
|------------------------------------------|
|-7-7-7-77--7-7-7-77--4-4-4-44--0-0-0-00---|
|-7-7-7-77--7-7-7-77--4-4-4-44--0-0-0-00---|
|-7-7-7-77--7-7-7-77--4-4-4-44--0-0-0-00---|

|----------------------|
|----------------------|
|----------------------|
|-7-7-7-77--7-7-7-77---|
|-7-7-7-77--7-7-7-77---|
|-7-7-7-77--7-7-7-77---|

Verse

|---------------------0------------------------|
|-----------------------0----------------------|
|-----------6----2-----------------------------|
|-7----7----4----0--------7-7-7-77--7-7-7-77---|
|-7----7----4----0--------7-7-7-77--7-7-7-77---|
|-7----7----4----0--------7-7-7-77--7-7-7-77---|

Chorus

|-----------------|
|-----------------|
|-----------------|
|-7--------7-77---|
|-7--------7-77---|
|-7--------7-77---|

|--------------------|
|--------------------|
|-----------6----2---|
|-7----7----4----0---|
|-7----7----4----0---|
|-7----7----4----0---|

Outro

|------------------------------------------|
|------------------------------------------|
|------------------------------------------| x3
|-7-7-7-77--7-7-7-77--4-4-4-44--0-0-0-00---|
|-7-7-7-77--7-7-7-77--4-4-4-44--0-0-0-00---|
|-7-7-7-77--7-7-7-77--4-4-4-44--0-0-0-00---|

|----------------------|
|----------------------|
|----------------------|
|-7-7-7-77--7-7-7-77---|
|-7-7-7-77--7-7-7-77---|
|-7-7-7-77--7-7-7-77---|
Tap to rate this tab
# A B C D E F G H I J K L M N O P Q R S T U V W X Y Z