Song name
# A B C D E F G H I J K L M N O P Q R S T U V W X Y Z

Attack In Black - 1950 tab

Song: 1950
Artist: Attack In Black
Album: Widows E.P.
Tabbed By: Wade Ouellet
Tuning: D A D G B E

Verse

|-------------------------------|
|-------------------------------|
|-------------------------------|
|-2--------\55555555-55555555---|
|-2--------\33333333-33333333---|
|-2-----------------------------|
            ~~~~~~~~~~~~~~~~~~~~~

|---------------------------------------|
|---------------------------------------|
|---------------------------------------|
|-0-h2-2222-22222222-55555555-7--4--5---|
|-0-h2-2222-22222222-33333333-5--2--3---|
|-0-h2-2222-22222222--------------------|
       ~~~~~~~~~~~~~~~~~~~~~~

|-------------------------------------------|
|-------------------------------------------|
|-------------------------------------------|
|-0-h2-2--------4-/5-5-555-5-4-/5-5-555-5---|
|-0-h2-2--------2-/3-3-333-3-2-/3-3-333-3---|
|-0-h2-2------------------------------------|

|----------------------------------------------------|
|----------------------------------------------------|
|----------------------------------------------------|
|-0-h2-2222-22222222-2222-4-/5-555555-4--5--5----5---|
|-0-h2-2222-22222222-2222-2-/3-333333-2--5--3----5---|
|-0-h2-2222-22222222-2222----------------5-------5---|
       ~~~~~~~~~~~~~~~~~~~~~~~~~~~~~~

Chorus

|---------------------------------------|
|---------------------------------------|
|---------------------------------------|
|-00-0-000-22-2-222-55-5-555-55-5-555---|
|-00-0-000-22-2-222-33-3-333-33-3-333---|
|-00-0-000-22-2-222---------------------|

|---------------------------------------|
|---------------------------------------|
|---------------------------------------|
|-55-5-555-22-2-222-55-5-555-55-5-555---|
|-55-5-555-22-2-222-33-3-333-33-3-333---|
|-55-5-555-22-2-222---------------------|

|-------------------------------------|
|-------------------------------------|
|-------------------------------------|
|-00-0-000-22-2-222-5-5-5-5-5-5-5-5---|
|-00-0-000-22-2-222-3-3-3-3-3-3-3-3---|
|-00-0-000-22-2-222-------------------|

Bridge

|-----------------------------------------|
|-----------------------------------------|
|-----------------------------------------| x3
|-55555555-55555555-777-9-9999-99999999---|
|-55555555-55555555-777-9-9999-99999999---|
|-55555555-55555555-777-9-9999-99999999---|

|---------------------------|
|---------------------------|
|---------------------------|
|-55555555-55555555-7---9---|
|-55555555-55555555-7---9---|
|-55555555-55555555-7---9---|

Outro

Base it around these chords, it uses octaves i believe, but the bass plays the root notes of these:

|---------------------------------|
|---------------------------------|
|----------5----------------------|
|-2--------5--------0----1----5---|
|-2--------3--------0----1----5---|
|-2-----------------0----1----5---|
Tap to rate this tab
# A B C D E F G H I J K L M N O P Q R S T U V W X Y Z