Song name
# A B C D E F G H I J K L M N O P Q R S T U V W X Y Z

Attaque 77 - Yo Te Amo tab

yeah my first tab!!!
the song is very easy and simple
the lyric are so good if you want to sing it to a girl :)

mi primera tab y no se tocar!!!
enjoy!!!

intro /riff 1
|-------------------------------------|
|-------------------------------------|
|--------------------9-9-9-9-7-7-9-7--|
|--------------------7-7-7-7-5-5-7-5--| x2   
|--9-9-9-9-12-9-12-9------------------|    9
|--7-7-7-7-10-7-10-7------------------|    7 itīs player more times

verse /riff 2
|-------------------------------------|
|-------------------------------------|
|-------------------------9-9-7-7-----|
|-------------------------7-7-5-5-----| x2
|--9-----------12-12-12-12------------|
|--7(let ring)-10-10-10-10------------|
               (-------muted-------)   

solo!!! (batalle mucho para sacarlo aunque esta muy facil)

|-----------------------------------------------|
|-----------------------------------------------|
|--------5-7-7-5--------------5-7-7-5-4-5-------|
|--5-7-9---------9-7----5-7-9-------------7-5---|
|-----------------------------------------------|
|-----------------------------------------------|


|----------------------------------------------------------|
|------------------------------------------------10~--9-7-9|
|--------------------10---9-7-9-7--7~--10-7-10-7-----------|
|--7-7-7-7-10-7-10-7---------------------------------------|
|----------------------------------------------------------|
|----------------------------------------------------------|


you can figure by yourselves itīs too easy and you can ear the differences

tabbed by Ricardo Cavazos Granados!!!  
(soy el primero en hacer un tab de esta rola)

Rick_hellmont@hotmail.com 



Tap to rate this tab
 
# A B C D E F G H I J K L M N O P Q R S T U V W X Y Z