Song name
# A B C D E F G H I J K L M N O P Q R S T U V W X Y Z

Attaque 77 - Hacelo Por Mi tab

Help us improve GuitareTab! Take a short survey!
Artist: Attaque 77
Song: Hacelo Por Mi
User: coke_666      CHILE
Name: Jorge Miranda
E-mail: bolak13@hotmail.com
-------------------------------------------------------------------------------
                      ATTAQUE 77 - HACELO POR MI
-------------------------------------------------------------------------------


Intro:
 
GTR I 
E-C#-E-C#
A-B-A-B

GTR II
   E       C#                           E      C#
e|--------------------------------------------------------------------------|
B|--------------------------------------------------------------------------|
G|-1------------------------------------1-----------------------------------|
D|-2------------------------------------2-----------------------------------|
A|-2-------2-4-7-7-6-6-4-4--7-7-6-6-44--2-------2-4-7-7-6-6-4-4--7-7-6-6-44-|
E|-0-0h2h4------------------------------0-0h2h4-----------------------------|

   B       A        B       A
e|--------------------------3/4-5-|
B|------------------2-2-2-2-------|
G|-2-2-2-2------------------------|
D|---------6--4-4-4---------------|
A|--------------------------------|
E|--------------------------------|

Versos:

E                   
Yo no s lo que sent 
     C#  
esa tarde que te vi 
       A 
yo pensaba en otras cosas, 
        B  
fuiste mucho para m. 
  
      E                   
Yo crea en tus palabras,  
      C#  
tu mirada me enga 
      A 
Ahora s que no sos ma,  
        B  
la culpa la tuve yo. 
  
      A 
Yo no quise lastimarte,  
      C#  
jams tuve esa intencin 
        A 
Fuimos presos de un impulso,  
    F#           B
yo solo buscaba amor. 

GTR I 
E-C#-E-C#
A-B-A-B

GTR II
   E       C#                           E      C#
e|--------------------------------------------------------------------------|
B|--------------------------------------------------------------------------|
G|-1------------------------------------1-----------------------------------|
D|-2------------------------------------2-----------------------------------|
A|-2-------2-4-7-7-6-6-4-4--7-7-6-6-44--2-------2-4-7-7-6-6-4-4--7-7-6-6-44-|
E|-0-0h2h4------------------------------0-0h2h4-----------------------------|

   B       A        B       A
e|--------------------------3/4-5-|
B|------------------2-2-2-2-------|
G|-2-2-2-2------------------------|
D|---------6--4-4-4---------------|
A|--------------------------------|
E|--------------------------------|

          E                   
Y cuando te vea en la calle,  
     C# 
no poda evitar  
          A 
que el silencio se adueara,  
      B  
me quedaba sin hablar. 
  
      E                   
Ahora s que no sos ma,  
      C#  
la culpa la tuve yo. 
       A 
Si quers podes marcharte,  
      B  
solo te pido un favor. 
  
     A 
Si aun te queda algo de amor 
      C# 
dentro de tu corazn 
     A 
no me mires a los ojos 
    F#            A             B 
que me muero, yo me muero de dolor 

Hacelo por mi. 

GTR I 
E-C#-E-C#
A-B-A-B

GTR II
   E       C#                           E      C#
e|--------------------------------------------------------------------------|
B|--------------------------------------------------------------------------|
G|-1------------------------------------1-----------------------------------|
D|-2------------------------------------2-----------------------------------|
A|-2-------2-4-7-7-6-6-4-4--7-7-6-6-44--2-------2-4-7-7-6-6-4-4--7-7-6-6-44-|
E|-0-0h2h4------------------------------0-0h2h4-----------------------------|

   B      A      B     A
e|-------------------------|
B|---------------2---------|
G|-2---------------4-2-1---|
D|---6-4-2-1-2-4---------4-|
A|-------------------------|
E|-------------------------|

       E                    
Todo eso que senta  
      C#  
esa tarde que te vi 
       A 
ahora no tiene sentido,  
          B  
fue un mal sueo para m. 
  
       E                   
Y al pensar en tu mirada,  
      C#  
ya no puedo sonrer 
       A 
si quers podes marcharte,  
       B  
solo te quiero decir. 
  
     A 
Si aun te queda algo de amor 
      C#  
dentro de tu corazn (A|-4-5--7-)
       A                          
no me mires a los ojos 
       F#            A            B
que me muero, yo me muero de dolor.
 
Hacelo por m. 

GTR I 
E-C#-E-C#
A-B-A-B

GTR II
   E       C#                           E      C#
e|--------------------------------------------------------------------------|
B|--------------------------------------------------------------------------|
G|-1------------------------------------1-----------------------------------|
D|-2------------------------------------2-----------------------------------|
A|-2-------2-4-7-7-6-6-4-4--7-7-6-6-44--2-------2-4-7-7-6-6-4-4--7-7-6-6-44-|
E|-0-0h2h4------------------------------0-0h2h4-----------------------------|

   E               C#               E               C#
e|---4-2-4---4-2-4--------------------4-2-4---4-2-4-----------------|
B|-4-------4---------5-4-5---5-4-5--4-------4---------5-4-5---5-4-5-|
G|-----------------6-------6------------------------6-------6-------|
D|------------------------------------------------------------------|
A|------------------------------------------------------------------|
E|------------------------------------------------------------------|

   B       A        B       A
e|--------------------------3/4-5----|
B|------------------2-2-2-2----------|
G|-2-2-2-2---------------------------|
D|---------6--4-4-4----------------0-|
A|---------------------------------2-|
E|---------------------------------2-|
Related for Hacelo Por Mi tab