Song name
# A B C D E F G H I J K L M N O P Q R S T U V W X Y Z

Attaque 77 - Surfeando En El Soretero tab

Help us improve GuitareTab! Take a short survey!
Cancin: Surfeando en el soretero
Intrprete: Attaque 77
CD: Antihumano (2003)

E5 p.m.         D5 p.m.       A5 p.m.     E5 p.m.
Sigo vivo de milagro, que postal que emocin
                   D5 p.m.      A5 p.m.      B5
Surfeando en el desage quiero ms polucin

                            E5
Ac las olas y el mar te pueden matar 
     B5                E5
Esto es extremo de verdad
       B5                        E5  F#5
Escatolgicamente no hay nada mejor
              A5                    E5
En el soretero la vida es color marrn

E5 p.m.            D5           A5               E5
San Clemente deprimente, Villa Gesell Rolling Stone
E5 p.m.           D5           A5               E5
Vacaciones en la costa con mi tabla de telgopor

                            E5
Ac las olas y el mar te pueden matar 
     B5                E5
Esto es extremo de verdad
       B5                        E5  F#5
Escatolgicamente no hay nada mejor
              A5                    E5
En el soretero la vida es color marrn

E5 - D5 - C#5  D5 - A5 (x3) - Punteo 1 (x2) - Punteo 2 - Punteo 3 (x3)

                             E5
Ac las olas y el mar te pueden matar 
     B5                E5
Esto es extremo de verdad
                            E5          F#5
Ac las olas y el mar te pueden matar 
              A5                  E5    D5         F#5
En el soretero yo me siento en Hawai, imaginando
                 A5                 E5    D5       F#5
Yo me vuelvo loco y me siento en Hawai, imaginando
             A5                    E5 (*)
En el sortero la vida es color marrn 

Punteo 1 
   f#5                 A5                    E5 D5
E|------------------------------------------------------|
B|------------------------------------------------------|
G|------------------------------------------------------|
D|-7-7-7-7-7-7-7-6-----7-7-7-7-7-7-7-6-------9--7-6-----|
A|-----------------7-9-----------------7-9-7--------7-9-|
e|------------------------------------------------------|

Punteo 2
   F#5             A5
E|-----------------------------------------------|
B|-----------------------------------------------|
G|-6-6-6-6-6-6-4-2-4-6-6-6-6-4-2-4-6-6-6-6-6-4-2-|
D|-----------------------------------------------|
A|-----------------------------------------------|
e|-----------------------------------------------|

Punteo 3
   E5          D5    A5 D5
E|------------------------|
B|-5b-5b-5b-5b------------|
G|-------------7-5--4--5-|
D|------------------------|
A|------------------------|
e|------------------------|

p.m.= palm mute

ACORDES:
   E5 D5 A5 B5 F#5 C#5 f#5
E|-------------------------|
B|-------------------------|
G|-9--7--------11--6-------|
D|-9--7--7--9--11--6---4---|
A|-7--5--7--9---9--4---4---|
e|-------5--7----------2---|

Eso es todo, dudas o correcciones a juancho77ramone@hotmail.com
Related for Surfeando En El Soretero tab