Song name
# A B C D E F G H I J K L M N O P Q R S T U V W X Y Z

Attila - Rage tab

-----------------------------------------------------------------------------
			     Rage - Attila
-----------------------------------------------------------------------------

Tabbed by Brady (Bandrez)
Email: soccer.9.9@hotmail.com

Tuning Drop C#


D#|------13-12----12-------------------------|
A#|------------13----10----------------------|
F#|---------------------12-14-12-10----------|
C#|-0-0-----------------------------14-10----|
G#|-0-0-----------------------------------12-|
C#|-0-0--------------------------------------|

----------------|
----------------|
-10----9--------|
----------------|
-8-----7--------|
----------------|

---------------------------|
------10-6-----------------|
-----------7---9-5---------|
-0-0----------------5h7p5--|
-0-0-----------------------|
-0-0-----------------------|

--------------|
--------------|
-10--12--14---|
--------------|
-8---10--12---|
--------------|

----13-12----12----------------------------|
----------13----13-10-------------------13-|
----------------------12-14-12-10-12-14----|
-0-----------------------------------------|
-0-----------------------------------------|
-0-----------------------------------------|

-------------|
-------------|
-14--15--17--|
-------------|
-12--13--15--|
-------------|

---------------------------|
------10-6-----------------|
-----------7---9-5---------|
-0-0----------------5h7p5--|
-0-0-----------------------|
-0-0-----------------------|

-------------------|
-------------------|
-7-9-10--12-14-15--|
-------------------|
-5-7-8---10-12-13--|
-------------------|

And thats all I have for now.  Might add more later.

************************************

| /   slide up
| \   slide down
| h   hammer-on
| p   pull-off
| ~   vibrato
| +   harmonic
| x   Mute note
| b   Bend
| pb  Pre-bend
| br  Bend release
| pbr Pre-bend release
| brb Bend release bend

************************************
Tap to rate this tab
 
# A B C D E F G H I J K L M N O P Q R S T U V W X Y Z