Attila - Rage tab

This is an amazing song! It also took me a while to figure it all out. 
This will work, but if you have any suggestions or add on's just let me know. 
And just have fun and tweak it in your own way. 
You don't have to copy my exact interpretations of it lol.
And i'll stress it through out the tab, but just listen
and pay attention to the song to figure out the 
strumming pattern.


Tabbed by Garrett Guillen
Email: sk8-fo-life@hotmail.com


Tuning Drop C#

low to high:C# G# C# F# A# D#

Intro
|------13-12----12-------------------------|You just do open
|------------13----10----------------------|strums for the 
|---------------------12-14-12-10----------|rhythm guitar.
|-0-0-----------------------------14-10----|
|-0-0-----------------------------------12-|
|-0-0--------------------------------------|

------------------|
------------------|Listen to this part
------------------|to figure out the
-10--12--9--------|strumming pattern.
-8---10--7--------|
------------------|

|------------------------------|
|------10-10-6-----------------|
|--------------7---9-5---------|
|-0-0------------------5h7p5---|
|-0-0--------------------------|
|-0-0--------------------------|

--------------|
--------------|
--------------|
-10--12--14---|
-8---10--12---|
--------------|

|----13-12----12----------------------------|
|----------13----13-10-------------------13-|
|----------------------12-14-12-10-12-14----|
|-0-----------------------------------------|
|-0-----------------------------------------|
|-0-----------------------------------------|

--------------|
--------------|
--------------|
-10--12--14---|
-8---10--12---|
--------------|

|------------------------------|
|------10-10-6-----------------|
|--------------7---9-5---------|
|-0-0-------------------5h7p5--|
|-0-0--------------------------|
|-0-0--------------------------|

-----------------------------------|On the 7's you strum
-----------------------------------|down really fast while
------------------------------7----|moving up on the strings.
-10-12-14-12-14-15-14--0-0-0--7----|If that makes any sence.
-8--10-12-10-12-13-12--0-0-0--7----|
-----------------------0-0-0--7-/7b|

Chorus
|--------------------------------------|
|--------------------------------------|
|--------------------------------------|x5
|-0000--3h5p0--00--000--0000--3h5p0-00-|
|-0000--3h5p0--00--000--0000--3h5p0-00-|
|-0000--3h5p0--00--000--0000--3h5p0-00-|

Verse 1
|---------------------------------------|
|---------------------------------------|
|---------------------------------------|
|---------------------------------------|x4
|-/5---------3--------85--------7-54541-|
|----7-57575---7-5757----7-5757---------|

Bridge
|------------------------------------|
|------------------------------------|
|------------------------------------|
|-000--------000--9h10p9-000-3-0-5p3-|x4
|-000-7\5/7--000--9h10p9-000-3-0-5p3-|
|-000-5\3/5--000--9h10p9-000-3-0-5p3-|

Verse 2
|---------------|Just listen to it
|---------------|to figure out the
|---------------|strumming pattern.
|-3-5-2-0000000-|
|-3-5-2-0000000-|x4
|-3-5-2-0000000-|

Breakdown
|----------------------------------------------|
|----------------------------------------------|
|----------------------------------------------|
|-000--000--000--0-000----0-000--1--111--1-1-1-|x2
|-000--000--000--0-000-1b-0-000--0--000--0-0-0-|
|-000--000--000--0-000----0-000--0--000--0-0-0-|

Verse 1
|---------------------------------------|
|---------------------------------------|
|---------------------------------------|
|---------------------------------------|x8
|-/5---------3--------85--------7-54541-|
|----7-57575---7-5757----7-5757---------|

Intro
|------13-12----12-------------------------|You just do open
|------------13----10----------------------|strums for the 
|---------------------12-14-12-10----------|rhythm guitar.
|-0-0-----------------------------14-10----|
|-0-0-----------------------------------12-|
|-0-0--------------------------------------|

------------------|
------------------|Listen to this part
------------------|to figure out the
-10--12--9--------|strumming pattern.
-8---10--7--------|
------------------|

|------------------------------|
|------10-10-6-----------------|
|--------------7---9-5---------|
|-0-0------------------5h7p5---|
|-0-0--------------------------|
|-0-0--------------------------|

--------------|
--------------|
--------------|
-10--12--14---|
-8---10--12---|
--------------|

|----13-12----12----------------------------|
|----------13----13-10-------------------13-|
|----------------------12-14-12-10-12-14----|
|-0-----------------------------------------|
|-0-----------------------------------------|
|-0-----------------------------------------|

--------------|
--------------|
--------------|
-10--12--14---|
-8---10--12---|
--------------|

|------------------------------|
|------10-10-6-----------------|
|--------------7---9-5---------|
|-0-0-------------------5h7p5--|
|-0-0--------------------------|
|-0-0--------------------------|

-----------------------------------|On the 7's you strum
-----------------------------------|down really fast while
------------------------------7----|moving up on the strings.
-10-12-14-12-14-15-14--0-0-0--7----|If that makes any sence.
-8--10-12-10-12-13-12--0-0-0--7----|Their also a natural 
-----------------------0-0-0--7-/7b|harmonic

Outro
|------------------|Listen to this part,
|------------------|you just gotta repeat
|------------------| a few times. It's also
|-000000-1-111-----|all palm muted.
|-000000-0-000--5*-|
|-000000-0-000-----|

Then you end on
|------|
|------|Let the last one ring
|------|out till the end.
|-1--1-|
|-0--0-|
|-0--0-|
 PM

b-bend
h-hammer on
p-pull off
/-slide up
\-slide down
*-pinch harmonic
Tap to rate this tab
 
# A B C D E F G H I J K L M N O P Q R S T U V W X Y Z