Song name
# A B C D E F G H I J K L M N O P Q R S T U V W X Y Z

Attila - Rage tab

Intro, both guitars, tabbed perfectly. I'll be working on tabbing the rest of the 
song as time allows.

Email me at jawonesh1@yahoo.com with any questions.
Watch me playing this tab at http://www.youtube.com/watch?v=-3GXwrovgpI

#------------------------------------------------------------------------------##


Gtr I (C# G# C# F# A# D#) - 'Untitled'
Gtr II (C# G# C# F# A# D#) - 'Untitled'

  Q=202
 4/4
  Gtr I
  E E Q   E  E  E  E  E  E  E  E  E  E  E  E  E   Q.   E E  E E  E E  E E  E E E E E E
|--------13p12----12--------------------------------------------------------------------|
|--------------13----13-----------------------------------------------------------------|
|-----------------------14-12h14p12-------------/10---10---10---10----9----9---5-5-5----|
|-----------------------------------15p14--------------------------------------------0--|
|-0-0-------------------------------------15-10--/8----8----8----8----7----7---3-3-3-0--|
|-0-0--------------------------------------------------------------------------------0--|
|
| Gtr II
| E E Q   H           W                       E   Q.   E E  E E  E E  E E  E E E E E E
|---------------------------------------------------------------------------------------|
|---------------------------------------------------------------------------------------|
|------------------------------------------------14---14---14---14---12---12---9-9-9----|
|------------------------------------------------------------------------------------0--|
|-0-0--------------------------------------------12---12---12---12---10---10---7-7-7-0--|
|-0-0--------------------------------------------------------------------------------0--|


               PM--|
  +E  E Q  E E E E E E E E E E E E +E  E E E E E E E E E E E E E E E
|-------5---------------------------------------------------------------|
|----------6---------5--------------------------------------------------|
|------------7---------5------------------------------------------------|
|-(0)--------------------5-3h5p3-0-(0)-0-0-0-0-0-0-0-2-2-2-2-------0----|
|-(0)-0--------0-0-0-----------------------------------------3-3-3-0----|
|-(0)-0--------0-0-0-----------------------------------------------0----|
|
|              PM--|
| +E  E Q  E E E E E E E E E E E E +E  E E E E E E E E E E E E E E E
|-------5---------------------------------------------------------------|
|----------6---------5--------------------------------------------------|
|------------7---------5------------------------------------------------|
|-(0)--------------------5-7h8p7-----------------------------------0----|
|-(0)-0--------0-0-0-------------1-(1)-1-1-1-1-1-1-1-3-3-3-3-0-0-0-0----|
|-(0)-0--------0-0-0-----------------------------------------------0----|


  +E  E  E  E  E  E  E  E  E  E  E  E  E  E  E  E  +E   E  E  E  E  E  E  E  E  E  E  E  E  E  E E
|-------10p=8-----8-------------------------------------------------------------------------------|
|-------------10----10----------------------10-10-(10)-10-10-10-10-10-10-10-11-11-11-11-13-13-13--|
|----------------------10--9h10p=9--7--9h10-------------------------------------------------------|
|-(0)--------------------------------------------------------------------------------------------0|
|-(0)-0------------------------------------------------------------------------------------------0|
|-(0)-0------------------------------------------------------------------------------------------0|
|
| +E  E  E  E  E  E  E  E  E  E  E  E  E  E  E  E  +E   E  E  E  E  E  E  E  E  E  E  E  E  E  E E
|-------13p12----12-------------------------------------------------------------------------------|
|-------------13----13----------------------13----------------------------------------------------|
|----------------------14-12h14p12----12h14----10-(10)-10-10-10-10-10-10-10-12-12-12-12-14-14-14--|
|-(0)------------------------------14------------------------------------------------------------0|
|-(0)-0------------------------------------------------------------------------------------------0|
|-(0)-0------------------------------------------------------------------------------------------0|


                   PM|
  +E  E Q   E  E E E E E E  E E  E E E +E  E E E E E E E  E  E  E  E  E  E  E  E
|-------8---------------------------------------------------------------------------|
|----------10----------8------------------------------------------------------------|
|-------------10-7-------9-----------7-(7)-7-7-7-7-7-7-7-12-12-12-12-14-14-14-12----|
|-(0)----------------------10-7h=8p7------------------------------------------------|
|-(0)-0------------0-0---------------5-(5)-5-5-5-5-5-5-5-10-10-10-10-12-12-12-10----|
|-(0)-0------------0-0--------------------------------------------------------------|
|
|                  PM|
| +E  E Q   E  E E E E E E  E E  E E E +E  E E E E E E E  E  E  E  E  E  E  E  E
|-------5---------------------------------------------------------------------------|
|-----------6----------5------------------------------------------------------------|
|--------------7---------5-----------7-(7)-7-7-7-7-7-7-7--9--9--9--9-10-10-10--9----|
|-(0)------------0----------5-------------------------------------------------------|
|-(0)-0------------0-0--------8h10p8-5-(5)-5-5-5-5-5-5-5--7--7--7--7--8--8--8--7----|
|-(0)-0------------0-0--------------------------------------------------------------|


                                                                              PM--|  ~~~
   +E   E  E  E  E  E  E  E  E  E  E  E  E  E  E  E  +E  E  E Q.   E Q.   E E E E E  E
|-----------------------------------------------------------------------------------------|
|-----------------------------------------------------------------------------------------|
|-(12)-12-12-12-12-12-12-12-14-14-14-14-15-15-15------------------------------------------|
|-----------------------------------------------------------0------0------0---------------|
|-(10)-10-10-10-10-10-10-10-12-12-12-12-13-13-13------------0------0------0---0-0-0-------|
|------------------------------------------------12-(12)p7--0------0------0---0-0-0-[2]---|
|
|                                                                             PM--|  ~~~
|  +E   E  E  E  E  E  E  E  E  E  E  E  E  E  E  E  +E  E  E Q.   E Q.   E E E E E  E
|-----------------------------------------------------------------------------------------|
|-----------------------------------------------------------------------------------------|
|--(9)--9--9--9--9--9--9--9-10-10-10-10-12-12-12------------------------------------------|
|-----------------------------------------------------------0------0------0---------------|
|--(7)--7--7--7--7--7--7--7--8--8--8--8-10-10-10------------0------0------0---0-0-0-------|
|------------------------------------------------12-(12)p7--0------0------0---0-0-0-[5]---|


        PM------|
  +E  E E E E E E E  E  E  E  E  E   E  E W          W
|-------------------17-12----12-12------------------------|
|-------------------------13--------13--------------------|
|--------------------------------------12-----------------|
|---------------------------------------------------------|
|-------0---0---0-----------------------------------------|
|-(2)p0-0---0---0-------------------------8--------/12----|
|
|       PM  PM  PM
| +E  E E E E E E E  H           Q.       W          W
|---------------------------------------------------------|
|---------------------------------------------------------|
|---------------------------------------------------------|
|---------------------------------------------------------|
|-------0---0---0-----------------------------------------|
|-(5)p0-0---0---0-------------------------8--------/12----|


Duration Legend
---------------
W - whole; H - half; Q - quarter; E - 8th; S - 16th; T - 32nd; X - 64th; a - acciaccatura
+ - note tied to previous; . - note dotted; .. - note double dotted
Uncapitalized letters represent notes that are staccato (1/2 duration)
Irregular groupings are notated above the duration line
Duration letters will always appear directly above the note/fret number it represents the
duration for.  Duration letters with no fret number below them represent rests.  Multi-
bar rests are notated in the form Wxn, where n is the number of bars to rest for.  Low
melody durations appear below the staff

Tablature Legend
----------------
 h   - hammer-on
 p   - pull-off
 b   - bend
 pb  - pre-bend
 r   - bend release (if no number after the r, then release immediately)
 /\  - slide into or out of (from/to "nowhere")
 s   - legato slide
 S   - shift slide
  - natural harmonic
[n]  - artificial harmonic
n(n) - tapped harmonic
 ~   - vibrato
 tr  - trill
 T   - tap
 TP  - trem. picking
 PM  - palm muting
\n/  - tremolo bar dip; n = amount to dip
 \n  - tremolo bar down
 n/  - tremolo bar up
/n\  - tremolo bar inverted dip
 =   - hold bend; also acts as connecting device for hammers/pulls
 <>  - volume swell (louder/softer)
 x   - on rhythm slash represents muted slash
 o   - on rhythm slash represents single note slash

Misc Legend
-----------
 |  - bar
||  - double bar
||o - repeat start
o|| - repeat end
*|  - double bar (ending)
 :  - bar (freetime)
 $  - Segno
 &  - Coda
Tempo markers -  = BPM(8/16=s8/s16), where s8 = swing 8ths, s16 = swing 16ths


***************************************************************************************
* Generated using Power Tab Editor by Brad Larsen - http://powertab.guitarnetwork.org *
***************************************************************************************
Tap to rate this tab
 
# A B C D E F G H I J K L M N O P Q R S T U V W X Y Z