Song name
# A B C D E F G H I J K L M N O P Q R S T U V W X Y Z

Attila - Unbelievable tab

This is my interpretation of the song. I am 98.9% <-- (made up guess lol)sure this is 
how they (Attila) plays the song. Listen to the song and match these tabs to the rhythm.

# = palm mute
h = hammer on
p = pull off
^ = bend slightly

C#|---------------------------------------------------------------------|
G#|---------------------------------------------------------------------|
E |---------------------------------------------------------------------|
B |---------------------------------------------------------------------|
F#|----------5---------8-----7h8p7---8---4^--4^--4^--4h5p4-5h7p5--------|
B |-00-0--00---00-7-00---0000------00--00-00-00-------------------------|
    ##    ##   ##   ##   ####      ##  ## ## ##


C#|---------------------------------------------------------------------|
G#|---------------------------------------------------------------------|
E |---------------------------------------------------------------------|
B |---------------------------------------------------------------------|
F#|----------5---------8-----7h8p7---8---4^--4^--4^--7h8p7-8h10p8-------|
B |-00-0--00---00-7-00---000-------00--00-00-00-------------------------|
    ##    ##   ##   ##   ###       ##  ## ## ##



C#|---------------------------------------------------------------------|
G#|---------------------------------------------------------------------|
E |---------------------------------------------------------------------|
B |---------------------------------------------------------------------|
F#|----------5---------8-----7h8p7---8---4^--4^--4^--4h5p4-5h7p5--------|
B |-00-0--00---00-7-00---000-------00--00-00-00-------------------------|
    ##    ##   ##   ##   ###       ##  ## ## ##


C#|---------------------------------------------------------------------|
G#|---------------------------------------------------------------------|
E |---------------------------------------------------------------------|
B |---------------------------------------------------------------------|
F#|----------5---------8-----7h8p7---8---4^--4^--4^--7h8p7-8h10p8-------|
B |-00-0--00---00-7-00---000-------00--00-00-00-------------------------|
    ##    ##   ##   ##   ###       ##  ## ## ##
Tap to rate this tab
 
# A B C D E F G H I J K L M N O P Q R S T U V W X Y Z