Song name
# A B C D E F G H I J K L M N O P Q R S T U V W X Y Z

Attila - Payback tab

Attila - Payback Solo

Tuning - C#G#C#F#A#D#


D#|--------6h10h6----------------------1011108-/15--14--11--10----------|
A#|------8--------8-------------1011108------------------------11--10---|
F#|--7~~------------7-8-7-6/8~~-----------------------------------------|
C#|---------------------------------------------------------------------|
G#|---------------------------------------------------------------------|
C#|---------------------------------------------------------------------|

D#|-----------------------------------13h14h15----14-15/22~~~~----------|
A#|-----------------------------13h14----------16-----------------------|
F#|--12h14p12p11----------12-13-----------------------------------------|
C#|--------------13121012-----------------------------------------------|
G#|---------------------------------------------------------------------|
C#|---------------------------------------------------------------------|

The End

Thanks And Hope You Enjoy!

Tablature Legend
----------------
 h   - hammer-on
 p   - pull-off
 b   - bend
 pb  - pre-bend
 r   - bend release (if no number after the r, then release immediately)
 /\  - slide into or out of (from/to "nowhere")
 s   - legato slide
 S   - shift slide
  - natural harmonic
[n]  - artificial harmonic
n(n) - tapped harmonic
 ~   - vibrato
 tr  - trill
 T   - tap
 TP  - trem. picking
 PM  - palm muting
Tap to rate this tab
# A B C D E F G H I J K L M N O P Q R S T U V W X Y Z