Song name
# A B C D E F G H I J K L M N O P Q R S T U V W X Y Z

Attitack - Locked On tab

-= Tabs for locked on =-
    by:attitack

==================================================================================

Guitar Help
==================================================================================

o = Open
m = Palm-Muted
x = Harmonics
r = Reversed Swell.  Achieved with the volume button or a volume pedal.

==================================================================================

Guitar 1 Tabs
==================================================================================

  0:00
E ------------------------------------------------------------------------------------------------|
B ------------------------------------------------------------------------------------------------|
G ------------------------------------------------------------------------------------------------|
D 2-----------------------4-----5-----------4-----------4-----2-----------4-----7-----------4-----|
A 2-----------------------4-----5-----------4-----------4-----2-----------4-----7-----------4-----|
E 0-----------------------2-----3-----------2-----------2-----0-----------2-----5-----------2-----|
  o-----------------------o-----o-----------o-----------o-----o-----------o-----o-----------o-----|

  0:02
E ------------------------------------------------------------------------------------------------|
B ------------------------------------------------------------------------------------------------|
G ------------------------------------------------------------------------------------------------|
D ------4-----2-----------4-----4-----4-----7-----------4-----4-----4-----4-----4-----4-----------|
A ------4-----2-----------4-----4-----4-----7-----------4-----4-----4-----4-----4-----4-----------|
E ------2-----0-----------2-----2-----2-----5-----------2-----2-----2-----2-----2-----2-----2--2--|
  ------o-----o-----------m-----m-----m-----o-----------m-----m-----m-----m-----m-----m-----m--m--|

  0:05
E ------------------------------------------------------------------------------------------------|
B ------------------------------------------------------------------------------------------------|
G ------------------------------------------------------------------------------------------------|
D 4-----4-----4-----------4-----4-----4-----7-----------4-----4-----4-----4-----4-----4-----------|
A 4-----4-----4-----------4-----4-----4-----7-----------4-----4-----4-----4-----4-----4-----------|
E 2-----2-----2-----2--2--2-----2-----2-----5-----------2-----2-----2-----2-----2-----2-----------|
  m-----m-----m-----m--m--m-----m-----m-----o-----------m-----m-----m-----m-----m-----o-----------|

  0:08
E ------------------------------------------------------------------------------------------------|
B ------------------------------------------------------------------------------------------------|
G ------------------------------------------------------------------------------------------------|
D 4-----4-----4-----------4-----4-----4-----4-----4-----4-----4-----4-----4-----4-----2-----2-----|
A 4-----4-----4-----------4-----4-----4-----4-----4-----4-----4-----4-----4-----4-----2-----2-----|
E 2-----2-----2-----------2-----2-----2-----2-----2-----2-----2-----2-----2-----2-----0-----0-----|
  m-----m-----o-----------o-----m-----m-----o-----m-----m-----m-----m-----m-----m-----m-----m-----|

  0:11
E ------------------------------------------------------------------------------------------------|
B ------------------------------------------------------------------------------------------------|
G ------------------------------------------------------------------------------------------------|
D 5-----5-----7-----7-----3-----3-----3-----3-----3-----3-----3-----3-----3-----3-----3-----3-----|
A 5-----5-----7-----7-----3-----3-----3-----3-----3-----3-----3-----3-----3-----3-----3-----3-----|
E 3-----3-----5-----5-----1-----1-----1-----1-----1-----1-----1-----1-----1-----1-----1-----1-----|
  m-----m-----m-----m-----m-----m-----m-----m-----m-----m-----m-----m-----m-----m-----m-----m-----|

  0:14
E ------------------------------------------------------------------------------------------------|
B ------------------------------------------------------------------------------------------------|
G ------------------------------------------------------------------------------------------------|
D 3-----3-----3-----3-----3-----3-----3-----3-----3-----3-----3-----3-----3-----3-----3-----3-----|
A 3-----3-----3-----3-----3-----3-----3-----3-----3-----3-----3-----3-----3-----3-----3-----3-----|
E 1-----1-----1-----1-----1-----1-----1-----1-----1-----1-----1-----1-----1-----1-----1-----1-----|
  m-----m-----m-----m-----o-----o-----o-----o-----o-----o-----o-----o-----o-----o-----o-----o-----|

  0:16
E ------------------------------------------------------------------------------------------------|
B ------------------------------------------------------------------------------------------------|
G ------------------------------------------------------------------------------------------------|
D 3-----3-----3-----3-----------------------------------------------------------------------------|
A 3-----3-----3-----3-----------------------------------------------------------------------------|
E 1-----1-----1-----1-----------------------------------------------------------------------------|
  o-----o-----o-----o-----------------------------------------------------------------------------|

  0:19
E ------------------------|
B ------------------------|
G ------------------------|
D ------------------------|
A ------------------------|
E ------------------------|
  ------------------------|



==================================================================================





==================================================================================

Drum Help
==================================================================================

B = Bass Drum
S = Snare
H = Hi-hat
C = Crash
R = Ride
HT = High Tom
MT = Medium Tom
FT = Floor Tom
For the crash and hihat, x means closed and o means open.
When using stick hits, they will be represented by a s.

==================================================================================

Drum Tabs
==================================================================================

  0:00
B x---------------x-x-x-x-x-x-x-x-x-x-x-x-x-x-x-x-x-x-x-x-x-x-x-x-|
S x-----------------------x---------------x---------------x-------|
H ------------------------o-------o-------o-------o-------o-------|
C o---------------o-----------------------------------------------|
R ----------------------------------------------------------------|
HT----------------------------------------------------------------|
MT----------------------------------------------------------------|
FT----------------------------------------------------------------|

  0:05
B x-x-x-x-x-x-x-x-x-x-x-x-x-x-x-x-x-x-x-x-x-x-x-x-x-x-x-x-x-x-x-x-|
S --------x---x-----------x---------------x---------------x-------|
H o-------o-----------o---o---o---o---o---o---o---o---o---o---o---|
C ----------------o-----------------------------------------------|
R ----------------------------------------------------------------|
HT----------------------------------------------------------------|
MT----------------------------------------------------------------|
FT----------------------------------------------------------------|

  0:11
B x-x-x-x-x-x-x-x-x---x---x---x---x-x-x-x---x---x-x-x-x-x---x-----|
S --------x---x-xxxXxXxXxx----------------x---x-----------x---x-x-|
H o---o---o---o---------------------------------------------------|
C ----------------o---------------o-------o-------o-------o-------|
R ----------------------------------------------------------------|
HT------------------------xXxx------------------------------------|
MT----------------------------xXxx--------------------------------|
FT----------------------------------------------------------------|

  0:16
B x-x-x-x---x-----x-x-x-x---x-x-----------|
S --------x---x-x---------x---xXxx--------|
H ----------------------------------------|
C o-------o-------o-------o---------------|
R ----------------------------------------|
HT----------------------------------------|
MT----------------------------------------|
FT----------------------------------------|
Tap to rate this tab
 
# A B C D E F G H I J K L M N O P Q R S T U V W X Y Z