Song name
# A B C D E F G H I J K L M N O P Q R S T U V W X Y Z

Au Revoir Simone - Take Me As I Am tab

-------------------------------------------------------------------------------
	          TAKE ME AS I AM (intro) - Au Revoir Simone
-------------------------------------------------------------------------------

Tabbed by: rp7_
Email:     rp7_@hotmail.com

Tuning: Standard

e|---------------------------------------------------------------------------|
B|-10------------------------------------------------------------------------|
G|----9--------------9----9----9-11------------11----------------------------|
D|------11-9----9-11---11---11------11------11----11-11-9----9---------------|
A|-----------12-------------------------------------------12-----------------|
E|---------------------------------------------------------------------------|
Tap to rate this tab
 
# A B C D E F G H I J K L M N O P Q R S T U V W X Y Z