Song name
# A B C D E F G H I J K L M N O P Q R S T U V W X Y Z

Auburn - Perfect Two chords

plucking:

e|--3333---5555---7777---8888--|
B|--3333---3333---8888---8888--|
G|-----------------------------|
D|-----------------------------|
A|-----------------------------|
E|-----------------------------|

chords: (I don't know the names of the chords)

e|---3------5------7------8---|
B|---0------7------8------8---|
G|---0------7------9------9---|
D|---0------7------9-----10---|
A|---2------5------7-----10---|
E|---3------5------7------8---|
Tap to rate this tab
# A B C D E F G H I J K L M N O P Q R S T U V W X Y Z