Song name
# A B C D E F G H I J K L M N O P Q R S T U V W X Y Z

Audacious - The Answer tab

-------------------------------------------------------------------------------
			     THE ANSWER - Audacious
-------------------------------------------------------------------------------
Tabbed by: makutoid
Email: makutoid_@hotmail.com

Tuning: Drop D

Intro Riff
e|------------------------|-----------------------|
B|------------------------|-----------------------|
G|----------------------2-|---------------------2-|
D|-4--------------------2-|-0-------------------2-|
A|-4---2-2h4p0--2-2h4---0-|-0---2-2h4p0--2-2h4--0-|
D|-4----------------------|-0---------------------|

Second Riff (intro to verse 2)
e|------------------------|--------------------------------|
B|------------------------|--------------------------------|
G|----------------------2-|--------------------------------|
D|-4--------------------2-|-0------------5--4-2--5--4-2--4-|
A|-4---2-2h4p0--2-2h4---0-|-0---2-2h4p0--5--4-2--5--4-2--4-|
D|-4----------------------|-0------------5--4-2--5--4-2--4-|


Obviously, this is just the intro/modified riffs at the moment :) Rest of the song will 
be coming soon, just tweaking it as I'm not quite sure and just did this in a spare 10 minutes.

Hope it's all good, email me or comment with any questions or corrections and stuff!

Thanks :)
************************************

| /   slide up
| \   slide down
| h   hammer-on
| p   pull-off
| ~   vibrato
| +   harmonic
| x   Mute note
| b   Bend
| pb  Pre-bend
| br  Bend release
| pbr Pre-bend release
| brb Bend release bend

************************************
Tap to rate this tab
# A B C D E F G H I J K L M N O P Q R S T U V W X Y Z