Song name
# A B C D E F G H I J K L M N O P Q R S T U V W X Y Z

Audacious - Pressing On tab

Intro/Verse (Octave up/Single notes)
E|-----------------------|
B|-----------------------|
G|-----------------------|
D|--9--7--7--7--7--8--9--|
A|--9--5--7--7--7--8--9--|
D|--9-----7--7--7--8--9--|

Chorus
B                A                  E
With every step, with every breath, with all I am I'm pressing on.

Riff/Instrumental
E|-------------------------------|
B|---------------10--12--10--12--|
G|--4--7--9--11------------------|
D|---------------7---9---7---9---|
A|--2--5--7--9-------------------|
E|-------------------------------|

Bridge/Solo chords.
B                                  A
With every step with every breath, with all I am I'm pressing on
G                                  E
with every step with every breath, with all I am I'm pressing on
Tap to rate this tab
# A B C D E F G H I J K L M N O P Q R S T U V W X Y Z