Song name
# A B C D E F G H I J K L M N O P Q R S T U V W X Y Z

Audacious - Bring The Praise tab

(/) Slide Up  (\) Slide Down  (h) Hammer On  (p) Pull Off  (b) Bend (r) Release (v) Vibrato

Main Riff
E|----------------|
B|----------------|
G|--2b3--2--------|
D|----------0--2--|
A|----------0--2--|
D|----------0--2--|

Verse
E|-----------|
B|-----------|
G|-----------|
D|--4--0--2--|
A|--2--0--2--|
D|-----0--2--|

Pre-Chorus
PM'ed
E|----   ----|
B|----   ----|
G|----   ----|
D|--5-x8 -2--|x8
A|--5-   -2--|
D|--5-   -2--|

Chorus
B                       A             D
We all bring the praise every day, we all bring the praise
E
with all we got X2

Bridge
Verse chords for the breakdown
D                                   E
Won't stay silent not backing down, won't stay silent; we will bring the praise

Continue till end
Tap to rate this tab
 
# A B C D E F G H I J K L M N O P Q R S T U V W X Y Z