Song name
# A B C D E F G H I J K L M N O P Q R S T U V W X Y Z

Audio Adrenaline - Mighty Good Leader tab

One hundred and twenty-three B.P.M.

e-----------------------------|
B-----------------------------|
G-----------------------------|
D-----7---7----5---4---4------| (x2)
A---0---0----3---5---5--------|
E-----------------------------|

Chorus:
e------------------------------|
B------------------------------|
G------------------------------|
D--7---7----10---12------------|
A--7---7----10---12------------|
E--5---5----8----10------------|
""A        C     D

Second guitar
e------------------------------|
B---5---5----8-----7-----------|
G---7b9-7b9--10b12-9b11--------|
D------------------------------|
A------------------------------|
E------------------------------|

Bass part in verse:
G---------------------------------------------|
D---------------------------------------------|
A-0---0------0---0------0---0-----0-0-3-0-5-7-|
E-------3-0--------3-0--------3-0-------------|

Guitar part in verse:
e----------------------------------------|
B----------------------------------------|
G----------------------------------------|
D-----------5-5--------5-5\-----7-5-5----|
A-12\-0--3-/7-7--0--3-/7-7\--0--7-7-7--0-|
E----------------------------------------|

Prechorus:
e-----------------------------|
B-----------------------------|
G-----------------------------|
D----10----5----7--7-7---7----| (x2)
A----10----5----7--5-5h7-7----|
E--8-8---3-3--5-5-------------|
""C     G    A

Postchorus:
e-------------------------|
B----10~--10~--10~--10~---|
G-------------------------|
D-------------------------|
A--0----0----0----0-------|
E-------------------------|

Bridge:
e----------------------      ------------------11b-11b-|
B-5--5-7---5--5-7------      -5---7---8----10----------|
G--5----7---5----7----- (x2) -7b--9b--10b--12b---------|
D----------------------      --------------------------|
A----------------------      --------------------------|
E----------------------      --------------------------|
"A        C    D             A       C    D


Flooded by an ocean of some mixed emotions, they got you down again
Pride and passion, physical attraction, whatever thing you're in
These temptations causing frustrations, what you need is a friend
Someone who loves you, who is above you, take away all your sin
C       G      A                   C        G      A
Help is on the way, yeah yeah yeah, help is on the way
A                       C      D
A mighty good leader is on the way
A                                C        D
He's the only one gonna come and save the day
A                        C     D
It's alright, yeah uhhuh it's okay
A
Cause a mighty good leader is on the way


Now this someone knows where you come from, doesn't care where you've been
He can put back pieces that you lack, make you whole again
Tap to rate this tab
# A B C D E F G H I J K L M N O P Q R S T U V W X Y Z