Guitaretab - guitar tabs
Song name
# A B C D E F G H I J K L M N O P Q R S T U V W X Y Z

Audio Adrenaline - Strong tab

Solo to "Strong" by Audio Adrenaline

b - bend
r - release bend
~ - vibrato
h - hammer-on
p - pull-off

  A            Bm    D         E   
|----------------------------------------------------------------|
|----------------------------------------------------------------|
|---------------------------------9------------------------------|
|------------------7-9b11-11r9-9~---9b11-11-11-11-11-11r9-7------|
|------------7-7h9-----------------------------------------------|
|-12\--5-7h9-----------------------------------------------------|
[ Tab from: http://www.guitaretab.com/a/audio-adrenaline/147644.html ]
   Bm        D       E 
|----------------------------------------------------------------|
|----------------------------------------------------------------|
|----------------------------------------------------------------|
|--4-2-----------------------------------------------------------|
|------4-2-0---------------0-2b3r2p0----0------------------------|
|------------0h2-0h2-0--0h2----------0h2-2p0---------------------|
Note: on that last part, those probably aren't the exact notes.

   D                Bm  
|----------------------------------------------------------------|
|-------10-------------------------------------------------------|
|--9b11---11r9-9b11----------------------------------------------|
|-------------------9b11-11r9-9-9b11-11r9p7----------------------|
|-------------------------------------------9-7------------------|
|----------------------------------------------------------------|

   Bm                E
|----------------------------------------------------------------|
|-------10-------------------------------------------------------|
|--9b11---11r9-9b11----------------------------------------------|
|--------------------9b11-9b11-9~--------------------------------|
|----------------------------------------------------------------|
|----------------------------------------------------------------|

it's not too hard, just classic rock riffs
play with heavy distortion and enjoy
Related for Strong tab
Advertisement will be closed in 10 seconds